Revolve

By Jerome
Here are the tabs of Revolve by Desperation Band. I use a clean overdrive with some delay on it. This my first recording using Audacity so I wanna thank Kenny and all the people in the guitarpraise forum for helping me out!



Intro & Verse:
--6-6------------
---9-9---7-7-----
----------9-9----
-9------8--------
-----------------
-----------------
repeat Several times

Bridge:
-----11----11----9----11---
---11----11----11---11-----
-11----11----11---11-------
---------------------------
---------------------------
---------------------------

-------11------9------
---9--9----9--9-------
-11-11---11-11--------
----------------------
----------------------
----------------------

-------11------9------
---9--9----9--9-------
-11-11---11-11--------
----------------------
----------------------
----------------------

-------11-9-------9---
---9--9-------9--9----
-11-11------11-11-----
----------------------
----------------------
----------------------

-------11--9-----
---9--9----9-----
-11-11-----11----
-----------------
-----------------
-----------------

Instrumental: (octaves) strum
------------------------
------------------------
-9-8-6-9-8-4-3-6--------
------------------------
-7-6-4-7-6-2-1-4--------
------------------------

------------------------
-------9----------------
-9-8-6---9-8-4-6--------
-------6----------------
-7-6-4---7-6-2-4--------
------------------------

------------------------
-------9----------------
-9-8-6---9-8-4-6--------(2x)
-------6----------------
-7-6-4---7-6-2-4--------
------------------------
(with delay)

3 comments:

Anonymous said...

This song is called revolve not resolve

Anonymous said...

Hey Jerome,

What are the chords for this song? I can't find it anywhere...

wangzi said...

Many replica watches connoisseurs abode top amount on the amount of complications a watch has. Complications are automated functions added than basal time cogent like abiding calendars, additional time zone, or lunar phases. Generally speaking the added complications a watch has, the added admired it is.