But God

Here's 'But God' by Christian City Church. You can find lots of their instructional videos on Youtube, and my tabs probably differ from the official version (which I've yet to check out), so do take a look at CCC's version as well.



Intro
Harmonics part:
------------------
-----------7------
-7---7---7---7----
---7---7-------7--
------------------
------------------

Chords part
-------------------------------------
-3-3-3-3-5s7-7-7-7-------------------
-4-4-4-4-6s7-7-7-7--4-4-4-4-3-3-6-6--
--------------------5-5-5-5-4-4-8-8--
-------------------------------------
-------------------------------------
Bm D G F#

When the instruments come in, the lead guitar plays
-------------------------------
-7-7-5-0--7-7-5-0--------------
------------------3-3-3-4-4-6--
-------------------------------
-------------------------------
-------------------------------

-------------------------------
-7-7-5-0--7-7-5-0--------------
------------------4-4-4-3-3----
-------------------------------
-------------------------------
-------------------------------

Verse:
Chords part
----------
-5--7--3--
-6--7--4--
-7--9--5--
----------
----------
A Bm G

2nd part of the verse
----------
-7-7-5-0--
----------
----------
----------
----------

-------------------------
---------------------7---
---------------------7---
-9-9-7h9-9-7h9-9-7h9----- repeat
------------------------- a few times
-------------------------

before entering pre-chorus:
--------------
--------------
--------------
-9-9-9-8-8-8--
--------------
--------------

Pre-Chorus
-10----------------------
----10-12----10----------
----------11----9-11-----
---------------------12--
-------------------------
-------------------------

Chorus
Fills
--------------
-12-----------
--------9-11--
----12--------
--------------
--------------

Chords:
D A Bm G
Em D/F# A F#/A#

3 comments:

Ryan said...

hey kenny i saw a youtube video from CCCOF where they did the pentatonic scale differently

--10---7-----------------
---10---7---10------7----
--------------9------7---
-------------------------
-------------------------
-------------------------

Ryan said...

pentatonic scale for those who dont know, would be what's under Pre-Chorus for "But God"

wangzi said...

This blazon of replica Bell & Ross is absolutely aces a try. Why not aces one and let the fantasies run agrarian on your wrist? The iPhone appliance offers the wearers the adventitious to apprehend time in a added absorbing way. This alarm is a best exemplification of Piaget's top end accouterment and absolute craftsmanship.