Lord Your Goodness (Bass)

By Bass Levite

This song is filled with octaves and string skipping! It is best to use the 1st right finger to play the root note, and then use the 3rd right finger to play the octave higher, as shown below. This will enable you to play faster and with less error because there's minimum movement on the right hand.




I played the E on the low B string, so that it's easier to mute it after playing it. Try to avoid using open strings when playing dynamic styles like this.




Intro:

-----------------
-----------6---6-
---7---7---------
---------4---4---
-5---5-----------

-----------------
---7---7---4---4-
-----------------
-5---5---2---2---
-----------------

-----------------
-----------6---6-
---7---7---------
---------4---4---
-5---5-----------

-----------------
---7---7---4---4-
-----------------
-5---5---2---2---
-----------------

---4---4---4---4-
-----------------
-2---2---2---2---
-----------------
-----------------


Verse:

---6---6-4-------------
-----------6-4---4---4-
-4---4-----------------
---------------2---2---
-----------------------

---------------------
---7---7-------------
-----------7---7---6-
-5---5---------------
---------5---5---4---

---6---6-4-------------
-----------6-4---4---4-
-4---4-----------------
---------------2---2---
-----------------------

-----------------
---7---7---------
-----------7---7-
-5---5-----------
---------5---5---





Prechorus:

-----------------
---4---6---7---6-
-----------------
-2---4---5---4---
-----------------

---6---8---9---8-
-----------------
-4---6---7---6---
-----------------
-----------------

-------------------------
---4---6---7---4---------
-------------------------
-2---4---5---2---7-7-7-7-
-------------------------


Chorus:

-----------------
-----------6---6-
---7---7---------
---------4---4---
-5---5-----------

-----------------
---7---7---4---4-
-----------------
-5---5---2---2---
-----------------

-----------------
-----------6---6-
---7---7---------
---------4---4---
-5---5-----------

-----------------
---7---7---4---4-
-----------------
-5---5---2---2---
-----------------

There's a key change in the song, from E to F. Just shift everything up 1 fret.

1 comment:

ken2012 said...

replica Hermes enjoy a high fame all over the world, and the Hermes Birkin is the representative brand, which has the more flexible choice in material and color, and more big-hearted and causal style than Kelly. The answer lies in the material used are skins of crocodile, ostrich, calf and lizard.