My Glorious (Intro)

By Kyle



e|----------------------
B|--------2-2-----------
G|--------2-2-----------
D|-4-4--4-2-2-X-X-X-X--- 2x
A|-4-4--4-0-0-X-X-X-X---
E|-0-2H-2-----X-X-X-X---

e|-----------------------------------------------
B|-----------------------------------------------
G|-7-7-7-7-7-X-X-X-X--7-6-4-4-4-4-X-X-X-X-4-4--4-
D|-7-7-7-7-7-X-X-X-X--7-6-4-4-4-4-X-X-X-X-4-4--4-
A|-5-5-5-5-5-X-X-X-X--5-4-2-2-2-2-X-X-X-X-0-2H-2-
E|-----------------------------------------------

7 comments:

Anonymous said...

thats wrong. he plays the A open only holding down one string. and then uses harmonix on one part. kenny how did you let this guy get away with this.

Anonymous said...

that sounds at exactly like it anonymous guy should try it instead of just arguing it.theres always more than one way to play a song.Good job kyle

Anonymous said...

songs aren't about the tunes...
it doens't matter how you play it

Brainiac said...

quit complaining start posting!

Why is it always Anonymous people who are the most cruel and provocing! QUIT IT!

If you think you got a better tap, then post it! If not, then be quiet!

Respect bro for the work, like the way it sounds. Eventhough it's not completely the way it might go!

Anonymous said...

thats amazing work kyle! im glad i could find some accurate tabs on this song, one thing i did change about your version though is when muffle you hand on the strings, i basically took my finger and put it on the 5th fret and it had a really cool harmonics sound

rock on dude! you should do some more videos...

Anonymous said...

It doesn't sound right to me (without listening to the cd, just playing it) when I do the
D|-4-4
A|-4-4
E|-0-2
...so I just play a straight up F# power chord. other than that, great job!

Jay Lim said...

Sounds pretty much exactly the same to me. Thank you! We'll be playing this song on Sunday and I've been trying to figure it out for a couple hours.