Church on Fire (Bass)

By Bass Levite

Yet another jazzy song from Hillsong's early years. There are slight variations in how Fish plays it for each verse and chorus, but here's the overall feel to it.




Riff: (based on blues scale)

---------------------
-------------3---3-5-
-----3-4-5-5---5-----
-3-6-----------------


Intro:

-------------------------
-------------------------
-----2-3-5---2-3-5-5-3-2-
-3-3-------3-------------


Verse:

-------------------------
-----------------5-5-2-0-
-----2-3-5---2-5---------
-3-3-------3-------------

-------------------
-------------------
-3-3-3-3-3-0---3-3-
-------------3-----

-------------------------
-------------------------
---------5-0-5-5h7-5----- (improvised here)
-5-5-5-5-------------7-5-




Chorus:

-------------------
-------------------
-------2-3-5-5-3-2-
-3-3-3-------------

-------------------------
-4-4---4-----------------
-----5---7-7-5-5-7-7-5-5-
-------------------------

-------------------
-----------5-5-----
-------2-5-----7-5-
-3-3-3-------------

---------------------
---------------------
-0-0-0-2-3-5-0-5-0-5-
---------------------

---------------------------------
---------------------------------
-3-3---3-2-2---2-3-3---3-2-2---2-
-----3-------3-------3-------3---

---------------
---------------
-0-0-2-3-5-0-5-
---------------

---------------
---------------
-3-3-3-3-3-5-5-
---------------

---------------------------------
-----------------5-5-2-2---------
-----2-2-3-3-5-5---------5-5-2-2-
-3-3-----------------------------

2 comments:

choy said...

I am not able to see the video... I need the chorus part of the song... Can you help me???

wangzi said...

It wasn't until backward at night that I accomplished the ability of replica watch . And it in fact was not the watch, It was the ability in their messages. The way that they are accession themselves in this market. I accepted something as I apprehend the history of this aggregation and area they are today. That was the arduous way for me to advance in this timepiece.