You Are Faithful

By Jerome
Use some delay and alot of distortion.



Instrumental: (Repeat each note refer to the vid)
-------------------14--11-
-12--11--16--9---------
-----------------------
-----------------------
-----------------------
-----------------------

-----------------------
-12--11--16--9--7--14-16-
-----------------------
-----------------------
-----------------------
-----------------------

3 comments:

Marcus Tang said...

shouldn't there be another few notes before the (14--11)

---------------------------s14--11-
-12--11--16--9(x3)---7-9(x2)
-------------------9---
-----------------------
-----------------------
-----------------------

i might be wrong though...sorry bout the lazy tabbing...

Anonymous said...

Thats why got delay ^^ so can play less, thats my perception but he did say delay

albert hinkle said...

What are the chords on the lead part?
https://www.facebook.com/alberthinkle