Shout Your Fame

By Jerome



Intro: (power Chords)
I mute the chords while switching them.

(repeat several times)
-------------------
-------------------
-5-5---------------
-5-5-5-5-7-7-3-3---
-3-3-5-5-7-7-3-3---
-----3-3-5-5-1-1---
C G Am F


Verse I and 2:
-------------------
-------------------
-5-5--------------- (2x)
-5-5-5-5-3-3-3-3---
-3-3-5-5-3-3-3-3---
-----3-3-1-1-1-1---
C G Am F

-------------------
-------------------
-------------------
-7-7-5-5-3-3-3-3---
-7-7-5-5-3-3-3-3---
-5-5-3-3-1-1-1-1---
Am G F F

-------------------
-------------------
-------------------
-7-7-5-5-3-3-3-3---
-7-7-5-5-3-3-3-3---
-5-5-3-3-1-1-1-1---
Am G F F

(with palm muting)

Then in the verse II and the chord G after the last F

Pre-Verse:
Same as Intro but play the chords continuously.

Chorus: (Power chords)
F C G Am
F C G G
F C G Am
Bb F Bb F
C G Am F
C G Am F

Bridge: (Power chords)
Bb F
As I live a life that
Shouts Your fame

Am Am

Bb F G

Instrumental:
Use the intro chords

1 comment:

longge said...

Since there are assorted poor sellers abnormally over the Internet who advertise bargain affected or replica affluence swiss replica watches adage that they are originals, you'd bigger aggregate abundant advice and apprentice something to assay the affected from the authentic. The smartest will attending even added afield.