Freedom Song

By Jerome
I like Desperation band alot, and i think that the scratching noises they use can be used for rap music! Anyway here the tabs and more to come!



Intro: (used for the bass too!)
-------------------------------
-------------------------------
-----3h4----3h4-----3h4----3h4-
-----------------2-2---2-2-----
-2-2----2-2--------------------
-------------------------------

------------------------------
------------------------2-----
------4-3---4-3----3-4-4-3-4--
-4-4---4-4----2-2-------------
------------------------------
------------------------------

Instrumental: (palm muting)
---------------------------
---------------------------
---------------------------
---------------------------
--2-2-4-2-2-2-4-2-2-2-4-2--
---------------------------

---------------------------
---------------------------
---------------------------
---------------------------
-4h5p4-"2-------------------
---------4-4-7-4-4-4-7-4-4-4
[k: i think the 4h5 should be 4h6]
---------------------------
---------------------------
---------------------------
---------------------------
-----------------4-----4---
-7-4-7h8p7-4--2-2-2-2-2-2-2
[k: i think the 7h8 should be 7h9]

---------------------------
---------------------------
---------------------------
---------------------------
--4-4h5p4-2-----1h2---2p1--
-2-2---------0-0---0-0-----

---------------------------
---------------------------
---------------------------
---------------------------
----1h2h4-1-2-1"-----------
-0-0-----------------------



Followed by: (palm muting)
---------------------------
---------------------------
---------------------------
----4-----4-----4-4s6s4s2--
-2-2-2-2-2-2-2-2-2---------
---------------------------

Then repeat the parts inside the " " in the instrumental.

6 comments:

Temo said...

Yeah, the scratching noices is their DJ, he uses turn tables, it would be pretty cool to be able to play turntables, maybe just for fun!!

Anonymous said...

I think the the TABS for the first couple of lines in the intro is suppose to be:
-----------------------------------
-----------------------------------
-----3h4---3h4------------3h4-3h4-
-------------------2-2---2-2-------
-2-2-----2-2-----------------------
-----------------------------------

-not-

Intro: (used for the bass too!)
-----------------------------------
-----------------------------------
---------------------3h4-----3h4---
-----3h4-----3h4-2-2-----2-2-------
-2-2-----2-2-----------------------
-----------------------------------

Anonymous said...

-AND- the last part of the intro should be:
------------------------------
-----------------------2------
------4-3---4-3----3-4--4-3-4--
-4-4---4-4-----2-2-------------
------------------------------
------------------------------

-not-

------------------------------
------------------------2-----
------4-3---4-3----2-4-4-3-4--
-4-4---4-4----2-2-------------
------------------------------
------------------------------

but the video is right though c";) Kudos mate, keep up the good work...God bless!

kenny said...

you're right.. thanks!

aikaik5 said...

Hi can i have the chords to the song??? Pls thanks! =)

Regan said...
This comment has been removed by the author.