Hosnna (Hillsong) Part 2

Here's part 2 of Hillsong's Hosanna, which comprises of the instrumental onwards. Check out part 1 here as well.



Instrumental:
The first half is similar to the intro.
-9------11------12--------14--
-9---------9s10----10s12------
-9-9s11-----------------------
------------------------------
------------------------------
------------------------------

2nd half..
-14-0-0-16-0-0-11-0-0-12-0-0-7-0-9-0-
--------------------------------------
--------------------------------------
--------------------------------------
--------------------------------------
--------------------------------------

-0-14-0-0-16-0-0-11-0-0-12-0-0-7-0-9-0-0-
----------------------------
-------------
-----------------------------------------
-----------------------------------------
-----------------------------------------
-----------------------------------------

-9h12-0-9h11h12-0-12-0-12-0-12s14-14-16--
-----------------------------------------
-----------------------------------------
-----------------------------------------
-----------------------------------------
-----------------------------------------
The last two notes are played a few times.. i might have gotten it wrong in the video, so do listen out to the cd.

Bridge
Play this at the C#m chord, right after "You Have Loved Me..."
----------------
----------------
-6-8-9-11-13-14-
----------------
-4-6-7-9--11-12-
----------------

Post Bridge
I used too much distortion in the video, use a cleaner sound here.
--------------------
-9---9---7---7---7--
---9---9---9---9----
--------------------
--------------------
--------------------
You may use the open E string instead of the 9th fret on the G string.

----------------------
-9---9---7---7-9s12s9-
---9---9---9----------
----------------------
----------------------
----------------------

--------------------
-9---9---7---7---7--
---9---9---9---9----
--------------------
--------------------
--------------------

----------7-------
-9---9------------
---9---9----------
------------------
------------------
------------------

7 comments:

Anonymous said...

In The 1st Half of Instr. tabs the 2nd 11 note must be 12!

-9------11------12--------14--
-9---------9s10----10s12------
-9-9s11-----------------------
------------------------------
------------------------------
------------------------------

By Jerome

Anonymous said...

0-17-0-14-0-0-11-0-0-12-0-0-7-0-9-0---
--------------------------------------
--------------------------------------
--------------------------------------
--------------------------------------
--------------------------------------

0-14-0-0-16-0-0-11-0-0-12-0----0-19-0-
----------------------------12--------
--------------------------------------
--------------------------------------
--------------------------------------
--------------------------------------

9-12-0-9-11-12-0-12-0-12-0-12s14-14-14
--------------------------------------
--------------------------------------
--------------------------------------
--------------------------------------
--------------------------------------

14s16-16-16-16-16-16-16-16b~~~~~~~~~~~
--------------------------------------
--------------------------------------
--------------------------------------
--------------------------------------
--------------------------------------

i believe this may be a bit more correct. you be the judge.

Anonymous said...

0-17-0-14-0-0-11-0-0-12-0-0-7-0-9-0---
--------------------------------------
--------------------------------------
--------------------------------------
--------------------------------------
--------------------------------------

0-14-0-0-16-0-0-11-0-0-12-0----0-19-0-
----------------------------------12--------
--------------------------------------
--------------------------------------
--------------------------------------
--------------------------------------

9-12-0-9-11-12-0-12-0-12-0-12s14-14-14
--------------------------------------
--------------------------------------
--------------------------------------
--------------------------------------
--------------------------------------

14s16-16-16-16-16-16-16-16b~~~~~~~~~~~
--------------------------------------
--------------------------------------
--------------------------------------
--------------------------------------
--------------------------------------

i believe this may be a bit more correct. you be the judge.

Lyanne said...

Hey Kenny,
In the very last chorus of the song, there are a few riffs in the chorus.
I don't think you tabbed them. Could you please tab them?

Dan said...

Yo kenny!
are you setting the same from the verse and intro to the chorus
and from the chorus to the solo?

srevol007 said...

hello Mr. Kenny,
i'm using a zoom g1x effects but i don't hv much knowledge to customize the effects to get the desired effects necessary for this song. can you help me? tnx and God bless.

Houa said...

WOW!!!!!!!!im so inspired by your work!! please keep at it!! GOD BLESS YOU child!!