Hosanna (Hillsong) Part 1

Here's the first part of Hosanna by Hillsong. Although most prefer the United version, there are plenty of parts here that can be used for rhythm or for a 2nd guitar part.. e.g. try playing the two intros together with another guitarist!



I used a dotted 8th note stereo delay here. The chords are the same as the United version, so I'll leave them out.

Intro
-9-------11--------------12-------------
-9-----------------9--10-------------12-
-9--9s11------9h11----------------11----
------------9---------------11s13-------
----------------------------------------
----------------------------------------


-9-------11--------------12--14----
-9-----------------9--10-----12----
-9--9s11------9h11-----------11----
------------9----------------------
-----------------------------------
-----------------------------------

Verse 1 (2nd half)
-------------------------
-10-9h10-------------12--
---------9--------11-----
-----------11--13--------
-------------------------
-------------------------

Chorus
----------12-----11------------
---12--10-----12-----------9---
-9--------------------9h11-----
--------------------9----------
-------------------------------
-------------------------------

----12-----------11-9------
-10-----9-12----------12---
--------------11-----------
---------------------------
---------------------------
---------------------------

----------12-----11-------------12----
---12--10-----12----------9--10----12-
-9-------------------9h11-------------
--------------------9-----------------
--------------------------------------
--------------------------------------

Pre-Verse
-9---0--0--0--0---
-9---7--9--12-9---
-9----------------
------------------
------------------
------------------

9 comments:

dahn said...

the videos down, pls fix
thanks

dahn said...

hey kenny btw, i dont think you tabbed it completely. for example the part before verse1 2nd half.

kenny said...

Hey,
I just uploaded it, so it'd come on in awhile.

The part before V1 2nd half is mostly just power chords with the B and E strings left open.

Xan said...

Nice one kenny! :)

Anonymous said...

hi,just wan to know wat type effects did u used for this song?it sounds like a chorus n a delay paddle....it would help if u tell me,thanks

Dan said...

Your freaking awesome!

What pedal or sound system do you use?

Anonymous said...

just before that V1(2nd Half):

e-9
B-9
G-9


B--12-----9---
G-----11------
D-----------9-

Tony said...

hey
i wanted to know what would the tabs be if the key was transposed to Am

Nick said...

Thank you,you are of tremendous help in my efforts to play for the glory of His Name.you are a blessing to many.