Saviour King (Hillsong) 2

By Jerome

Here's the second part of the vid! Hope this helps all of you.



Instrumental:
Strum
---------|--------------------
-8--8--6-|--------------------
---------|-9-8h9p8h9p8-8s4----
---------|----------------(2x)
-7--6--4-|--------------------
---------|--------------------
---------------------------
---------------------------
11(18X)-14-14-14-14-14-13--
---------------------------
---------------------------
---------------------------

Chorus:
----------9--7----11---9-11
--9--7---------------------
-9--9---9-9----9s11--------
---------------------------
---------------------------
---------------------------
---------------------
--9-7--7-7-9-9-9-9---
-9-9--9--------------
-----9--9-9-9-9-9----
---------------------
---------------------
--9-9-9-7-7-7-7-9-9-7-9-9-9-
----------------------------
-9-9-9-9-9-9-9-9-9-9-9-9-9--
----------------------------
----------------------------
----------------------------
--11-11-11-11-11--11-11-11-11-11
--------------------------------
-11-11-11-11-11-11-11-11-11-11--
--------------------------------
--------------------------------
--------------------------------
----------------------------
--9-9-9-9-9----10(4x)-9(4x)-
-9---------11-11------------
----------------------------
----------------------------
----------------------------

4 comments:

Anonymous said...

Thank you soo much for these tabs! Can't find em anywhere else..

Anonymous said...

I have sent this site to all my friends! Verry good site

Thanks for doing this

Anonymous said...

Thanks Jerome, helped us out a lot. :)

Gerardo Abbiel said...

Thanks a lot for the tab, it's very helpful, on my church we're trying to get the arrangements for the second and even third guitar, do you think is it possible you can upload some of the figures the other guitars play?

Thanks again

Blessings from Mexico!!