God of Ages

By Jerome

I saw Dave's pdf files (click on his name on the side bar to go to his website) - his intro tabs are different from mine so I can't say that my intro is 100% correct!



I use 2 delay one quarter for intro, verse I, pre-chorus, chorus I and verse II. The second delay is a dotted 8th note for the last part of the vid.
Intro and Verse I:
---------0---------
---3--3----3-3-----
--0--0--0---0-0---- (rpt 3x)
-5--5--5-----------
-------------------
-------------------

followed by:
-------------------
---3--3-3---3--3-3-
--0--0-0---0--0-0--
-5--5-----5--5-----
-------------------
-------------------
repeat this several times!

Pre-chorus I:( '' ) palm muting
------------10-----
-------------------
-'12-12-12'--------
-------------------
-------------------
-------------------

-------------------
------------12-----
-'11-11-11'--------
-------------------
-------------------
-------------------

------------10-----
-------------------
-'12-12-12'--------
-------------------
-------------------
-------------------

-------------------
-------------------
-'12-12-11'--------
------------12-----
-------------------
-------------------
repeat this whole part 4x, refer to the vid.


Chorus: (rpt whole part 2x)
-----10--10--10-----
---12-----------(2x)
-12----12--12-------
--------------------
--------------------
--------------------

-----10--10--10-----
---10-----------(2x)
-12----12--12-------
--------------------
--------------------
--------------------

Verse II:
--------0-------
---3-3-3-3-3----
--0-0-0---0-0--- (rpt 3x)
-5--------------
----------------
----------------

followed by:
-------------------
---3--3-3---3--3-3-
--0--0-0---0--0-0--
-5--5-----5--5-----
-------------------
-------------------

Pre-chorus II: (rpt. each note refer to the vid)
-------------------
-15--10--12--7-----
-------------------
-------------------
-------------------
-------------------
(rpt. 2x)

Chorus:(rpt. each note refer to the vid)
-------------------

--15-10-12---------

-------------------

-------------------

-------------------

-------------------

rpt several times

3 comments:

anomynous said...

im pretty sure theres more notes than just

---------0---------
---3--3----3-3-----
--0--0--0---0-0----
-5--5--5-----------
-------------------
-------------------

try also playing


---------0---------
---3--3----3-3-----
--0--0--0---0-0----
-5--4--2-----------
-------------------
-------------------

with

-------------------
---3--3------------
--0--0-------------
-2--4--------------
3--5---------------
-------------------

so you can play the other chord shapes following along the intro/verse chords

anomynous said...

woops typo lol

----------0--------
---3--3--3-3-3-----
--0--0--0---0-0----
-5--4--2-----------
-------------------
-------------------

Hsia Pin said...

i think the pre chorus section goes like this

---------10------------
---------------------12
12-11-12----12-11-12---
-----------------------
-----------------------
-----------------------

---------10------------
-----------------------
12-11-12----12-11-10---
---------------------12
-----------------------
-----------------------