There is Nothing like

By Jerome

Here's There is Nothing like by Hillsong United. Use some distortion and dotted 8th note delay.



Intro: "1st lead guitar"
-----------------------
--------9-----9--------
-----11-----------11--- (repeat this 4x)
--11-------11----------
-----------------------
-----------------------

"2nd lead guitar"
----------------------------
----9-----------------------
-11---11-9-9h11--------9h11-
----------------9-9h11------
----------------------------
----------------------------

-------------------------------
----9--------------------------
-11---11-9-9h11-----11---11----
---------------9-9----9----9---
-------------------------------
-------------------------------
repeat this part 2x and play the last two notes on the 2nd time

Verse:
------------------------------------------------
------------------------------------------------
---11-----11------11--------9h11----11-----11---
-9----9-9----9--9----9--9h11------9----9-9----9-
------------------------------------------------
-------------------------------------------------
----------------------------------------------
----9---------------------------9-------------
-11--11--9-9h11---------9h11-11---11-9-9h11---
----------------9-9h11----------------------9-
----------------------------------------------
----------------------------------------------
Pre-Chorus: use a lot of dist.
--------------------------
--------------------------
--11--13----11h13--11h13--
-----------11-------------
--------------------------
--------------------------
Chorus:
--12--------
------12----
------------ repeat 8x
------------
------------
-----------
Followed by these chords (strum every 4 beats):
Bsus2 A E2 F#sus4(or F#m)

3 comments:

Alex said...

the only thing i suggest is that you play the second part of the intro down on B and E strings and use hammer ons and pull offs instead of hitting every note

Anonymous said...

BUen punteo de los temas aunque debes tomar en cuenta algunas tecnicas mas, pero excelente, debes seguir sacando el mismo tema y tratar de sacarlo completo

ellamayrivas said...

THE EASIET WAY TO PLAY THE 2ND INTRO IS
e------------|
B--7-9S5-7-0-|
G------------|
D------------|
A------------|
E------------|
instead of
----------------------------
----9-----------------------
-11---11-9-9h11--------9h11-
----------------9-9h11------
----------------------------
----------------------------

-------------------------------
----9--------------------------
-11---11-9-9h11-----11---11----
---------------9-9----9----9---
-------------------------------
-------------------------------