Only One

By Jerome

Here's the song Only One by Hillsong United. I used a Tube Overdrive here, but other distortions should work too.



Intro:
--------------------
--7(6x)-9-9--11(8x)-
--------------------
--------------------
--------------------
--------------------

Verse 1
:
I apologize coz there's a small leading part with a delay but i think its not very important to play it. Play at the last part the power Chord B (refer to the video)

Verse 2:
----------------------------------------
---------11-------11---------11---12-11-
-11-13----11-13----11-13---11-----------
----------------------------------------
----------------------------------------
----------------------------------------

---------------------------------
---------11--------11-------11---
-11-13----11-13----11-13---------
---------------------------------
---------------------------------
---------------------------------

---------------------------------
---------------------------------
-10-11-13--10-11-13--10-11-13----
---------------------------------
---------------------------------
---------------------------------
Then Play power chord B.

Pre.Chorus: Strum
G#m B G#m B

Chorus:
D#m B F# C#
D#m B F# C#
D#m B F# C#
D#m B C#

Click here to download the music sheet of Only One (I Use Mic.Word 97-2003 coz dont have a Pdf): http://www.mediafire.com/?0ielrgvzj0z

2 comments:

Nate said...

No longer available :(

Ruben said...

Isn't there a guitar doing a part that goes:

e|------------
b|------------
g|-8--10--11--
d|------------
a|-6---8---9--
e|------------