A Reprise

By Bass Levite

Play this when it builds up. There's another useful skill to be learnt here; slide to a note in another string. For example, instead of sliding from the low A up 12 frets to the middle A on the E string, just slide up from fret 5 to about fret 10, release it, and then play the middle A on the 12th fret of the A string. Less distance to cover.



---------------------------
---------------------------
------12-10------------12s-
-5-5s-------12-10-5-5s-----

--------------------------
--------------------------
------12-10---------------
-5-5s-------12-10-5-5-7-7-

---------------------------------------
---------------------------------------
-3-3-3-3h5-3-3-3-----3-3-3h5-3-3-3-5-5-
-----------------3-3-------------------

---------------------------
---------------------------
------12-10------------12s-
-5-5s-------12-10-5-5s-----

----------------------------
----------------------------
------12-10-----------------
-5-5s-------12-10-5-5-3-3-1-

3 comments:

Anonymous said...

hey the video is not working!!

bass_levite said...

Sometimes it takes a while for YouTube videos to become publicly available... just have to wait I guess?

Anonymous said...

hey I'm not sure if you take requests but....could you do All About You?