Deeper

Here's a pretty old song, by Delirious, but I'm sure many of you know it. I played the instrumental below, which is also used for the intro. I later demonstrate how the instrumental melody can be integrated into the rhythm guitar for the chorus.



Tabs
Intro
-------------------
-------------------
-8-9-11--8-8h9-----
---------------9---
-------------------
-------------------

-----------------
-----------------
-8-9-11-9-8-9----
--------------9-- (x2)
-----------------
-----------------

----------------
-0-0-0-0-0-0-9--
-8-9-9-8-9-9----
----------------
----------------
----------------

-------------------
-------------------
-8-9-11--8-8h9-----
---------------9---
-------------------
-------------------

-----------------
--------9---------
-8-9-11---8-9----
--------------9-- (x2)
-----------------
-----------------

--------------------
-8-10-12-15-14-17---
--------------------
-5-7--9--12-11-14---
--------------------
--------------------

Chorus
Strum:
--------------
-4--5--4--5---
-4--4--4--4---
-2--2--2--2---
--------------
--------------
E & Emaj7

--------------
-4--5--4--5---
-4--4--4--4---
--------------
-2--2--2--2---
--------------
B &
Bsus4

--------------
-4--5--4--5---
-4--4--4--4---
--------------
-4--4--4--4---
--------------
C#m9 &
C#m

--------------
-4--5--4--5---
-2--2--2--2---
-2--2--2--2---
-0--0--0--0---
--------------
Ab5 &
A

Repeat the first two chords, then end with D and A.

1 comment:

Anonymous said...

Thanks!