Deeper (Bass)

By Bass Levite
There's a good bass instrumental in this worshipful song from "Look To You" at about 3m25s into the song.



-10-------------------------------
----------10h12-10----10----10h12-
----10h12----------12----12-------
----------------------------------

-9-------9-10----10-9----9h10-9----
---10-12------10------10--------12-
-----------------------------------
-----------------------------------

-------------9-10----10-9----9h10----
-10-12-10-12------10------10------10-
-------------------------------------
-------------------------------------

----------------------------
-9----9-9h10----10-9--------
---10--------10------10-9-8-
----------------------------

-----------------------------9-10-
-------------9----9-10-10s12------
-8h10-8-7-10---10-----------------
----------------------------------

4 comments:

rock4GOD said...

dont noe why no 1 wrote a comment cos this is great, helped me alot thks and keep rocking for God

danielyoonx3 said...

I can't get the first part of the song to make it sound the way you do, the 10h12 and the second 10h12. Any tips??

ryan said...

h means hammer on

ryan said...
This comment has been removed by the author.