Hillsong Saviour King Preview

The sample tracks for Hillsong's new album are out (check them out here), and I've tried some of the more prominent riffs out. There are quite a number of slow songs in this album, so there wasn't much to tab out, at least for the samples. The songs I've tried out are:
- Break Free
- Here In My Life
- Hosanna
- I'm Not Ashamed




Tabs
Break Free
Strum (I prefer the United version though):
------

--14--
--14--
--14--
------
------

Followed by (play each note several times, refer to the video):
-17-16---------17-16---------------
--------12-14--------15--14--------
----------------------------14-16--
-----------------------------------
-----------------------------------
-----------------------------------
Use the usual dotted 8th note delay as well.

Here In My Life
Pluck the following chords, with delay.
-9---9---11--9----9---9---11-11----

-12--11--12--12---12--11--12-12----
-11--11--9---11---11--11--9--9-----
-----------------------------------
-----------------------------------
-----------------------------------

Hosanna
Use some delay.

Pre-Chorus
----------------------------

-10-9h10-----------12-------
---------9------11----------
-----------11---------------
----------------------------
----------------------------

Chorus
----------12-----11----------------
---12--10-----12-------------------
-9-------------------9h11s13-------
-----------------------------------
-----------------------------------
-----------------------------------

----12-----------11-9------
-10-----9-12----------12---
--------------11-----------
---------------------------
---------------------------
---------------------------

----------12-----11-------------12----
---12--10-----12-------------10----12-
-9-------------------9h11s13----------
--------------------------------------
--------------------------------------
--------------------------------------

I'm Not Ashamed
Use some wah and delay.

Play each note a few times (refer to video).
-----------------------------------

-13-12-10-12---13-12-10-5-3h5p3h5--
-----------------------------------
-----------------------------------
-----------------------------------
-----------------------------------

Verse
Keep repeating the follow riff:
-----------

-3h5p3h5---
-----------
-----------
-----------
-----------

----------------------------------------------
Dave has also figured out some parts:

You Saw Me
Key C, 76bpm

Chorus G Am F C G Am F


You Are My Strength
Key G, 76bpm

Chorus C G D Em


You Are Faithful
Key B,58bpm

Pre Chorus B F#/A# x 2 B G#m E F#
Chorus E F# B G#m E F# G#m
Nigel? plays D#m7 on 11th fret ? finger on F# on E string ?


To Know Your Name
Key D, 77bpm

Chorus D A B G

Saviour King
Key E, 76bpm
Pretty much standard.


One Thing
Key F, 70bpm

Chorus F Bb C Dm – C


Lord of Lords
Key E, 6/8 time

Chorus A2 E B C#m A2 A2 E B B A2

5 comments:

Dave said...

Awsome job mate.

You rock.

D

Anonymous said...

amazing!!

but please, for the God's love post In Such A State by Edison glass or Stir by downhere

sembah said...

Wow ... that was fast!

Thanks so much! Appreciate it!

Blessings
Sembah

longge said...

The Swiss Customs account estimates that amid 30 and 40 actor affected Replica Watches links are awash every year. This agency that there's a actual acceptable adventitious that you ability be accepting a affected watch if you buy online. The online bazaar abode is a absolute area for affected watches because abounding arrangement hunters boutique online.

Patrick Lao said...

Anyone know how to get the guitar sounds for Savior King (with hearts as one) intro? I hear what sounds like 2 separate guitars, 2 delay times, multiple delays, tremolo, and who knows what else. Probably The most awesome display of modulated delay I've ever heard.