Desperate People (instrumental)

I missed out on the instrumental part of this song, so here it is.

By Jerome

Here's the Instrumental part of the song Desperate People.. Have fun. Use some 8 dotted delay and more distortion as well.




Tabs:
---12-------------------------------
-------12b13r12-------15-15-15-15---
-----------------14-----------------
------------------------------------
------------------------------------
------------------------------------

---12-------------------------------
-------12b13r12-------15-15-15s13---
-----------------14-----------------
------------------------------------
------------------------------------
------------------------------------


---12-------------------------------
-------12b13r12-------15-15-15s13---
-----------------14-----------------
------------------------------------
------------------------------------
------------------------------------

---15-15-15-13-13-13-13-12--
----------------------------
----------------------------
----------------------------
----------------------------
----------------------------

---12-------------------------------
-------12b13r12-------15-15-15-15---
------------------14----------------
------------------------------------
------------------------------------
------------------------------------


---12-------------------------------
-------12b13r12-------15-15-15s13---
-----------------14-----------------
------------------------------------
------------------------------------
------------------------------------

-15-15-15-13-13-13-13-13s17-17-17-17s19-19-19-19s20-
----------------------------------------------------
----------------------------------------------------
----------------------------------------------------
----------------------------------------------------
----------------------------------------------------

2 comments:

Lyanne said...

you can also play it like this, instead of your version..
i myself find this version a little easier:

E -12----------------10-10-10-10-
B ----12b13r12---10--------------
G -------------------------------
D -------------------------------
A -------------------------------
E -------------------------------

E ---12----------------10-10----
B ------12b13r12---10-------13-12
G -------------------------------
D -------------------------------
A -------------------------------
E -------------------------------
(x2)

E --15-15-15-13-13-13-13-12------
B -------------------------------
G -------------------------------
D -------------------------------
A -------------------------------
E -------------------------------

E -12----------------10-10-10-10-
B ----12b13r12---10--------------
G -------------------------------
D -------------------------------
A -------------------------------
E -------------------------------

E ---12----------------10-10----
B ------12b13r12---10-------13-12
G -------------------------------
D -------------------------------
A -------------------------------
E -------------------------------
(x3)

E --15-15-15-13-13-13-13-12------
B -------------------------------
G -------------------------------
D -------------------------------
A -------------------------------
E -------------------------------

E --17-17-17-19-19-19-19-19-20---
B -------------------------------
G -------------------------------
D -------------------------------
A -------------------------------
E -------------------------------

=]]
- Lyanne

OhMyGoditsLYANNE said...

oops.. the 10's on the E and B strings are supposed to be spaced out more.