Found

By Jerome
Here's the song Found by Hillsong United. This song reminds me that He found us, giving us a better life in Christ. The message of this song has really touched my heart and I hope it touches those who hear it... God bless




Use some delay like in the song Devotion but little dist eff..Have fun..

Tabs
Intro:
---------------------------------
--------7---8--------------------
-----7---------7----------------- (4x)
---------------------------------
---------------------------------
---------------------------------

Verse:
-------------------------------------------------
---7---7---7---7---8---8---8---8-----------------
-----7---7---7---7---7---7---7---7---------------
-------------------------------------------------
-------------------------------------------------
-------------------------------------------------

---7---7---7---7---------------------------------
-----8---8---8---8--7---7---7---7---8---8--------
----------------------7---7---7---7---7---7------
-------------------------------------------------
-------------------------------------------------
-------------------------------------------------

Guitar riff to Instrumental:
--------------0-----------------------------------
--------3--------3---------------------------------
-----2-----2--------2-------------------------------
--0-----------------------------------------------
-------------------------------------------------
-------------------------------------------------

Intrumental:
Followed by the chords:
Am....C...G...D

3 comments:

James said...

Hey Thanks so much for the tab, but by any chance do u have the full chords to the song?

kenny said...

You can get them here: http://www.unitedalloftheabove.com/resources_leadsheets.php, but you need to register first.

Anonymous said...

hey wat eq on the effects?