Point of Difference

Here's Point of Difference by Hillsong United, have fun!



There are some synth-ish effects at the start which I couldn't figure out, maybe sometime in the future. I made a mistake with the chords just before the chorus as well (at 1:03; forgot the chord!). Lastly, use the usual dotted 8th note delay for all lead parts


Tabs
Chorus
-------------------
-12---11--12--12---
-11---11--11--9----
-9----9---9---9----
-------------------
-------------------
B . . F# . . G#m . . E

Pluck first, then strum.

Pre-Verse
-------------------------------------
-9-(x12)-9s11s9----------------------
----------------11-8-(x12)-6-6-6-6---
-------------------------------------
-------------------------------------
-------------------------------------
Chords: G#m B (x2)

Verse
----------------------------------------
-16-16-16-16-(play the four notes x8)---
----------------------------------------
----------------------------------------
----------------------------------------
----------------------------------------

------------------------------------------------
-17-17-17-17-(x2)-16-16-16-16-14-14-14-14-------
------------------------------------------------
------------------------------------------------
------------------------------------------------
------------------------------------------------

--------------------
-16-16-16-16-(x4)---
--------------------
--------------------
--------------------
--------------------

Chords:
G#m | B | C#m | G#m F# |

Pre-Chorus/Pre-Bridge
E G#m E G#m
B
E G#m E
B


Bridge
Play each note 4 times, slide between notes.
-----------------------
-12-12-11-11-4-4-4-7---
-----------------------
-----------------------
-----------------------
-----------------------

-----------------------
-12-12-12-12-5-5-5-5---
-----------------------
-----------------------
-----------------------
-----------------------

13 comments:

Brian said...

2 general questions:
1. are you using delay while strumming the chords? how do you usually approach this?

2. whats your approach on picking which pick up position you use? normally i just use the neck for everything

kenny said...

I tried strumming with delay initially, but it sounded messy (hence the video had a cut there).. if you have to use delay, you need to do it with a lower 'mix' setting, so the delay isn't as loud as the notes you play.

Generally I use the neck for soloing and the bridge for rhythm, because the neck gives a warmer sound, and the bridge a thinner but brighter sound. But its not a hard rule, depends on what you think is suitable.

Anonymous said...

Thankyou very very much for your work here!! Much appreciated.

Cwisfa said...

Hey Kenny... Just wondering about the part when my counter says 1:26 - but my timer might be screwed - not sure if its meant 2 b countin down instead of up... didja purposely miss the single coil dual bending geetar part at 1:26 etc?

Just wondering btw,
Cwisfa

kenny said...

Oh yah.. i missed it out because of the other guitar part in the verse...

Just bend the 8th fret of the G string for that.

Anonymous said...

Hey Kenny can you add the second guitar for this song too, thanks for everything!!!

Anonymous said...

What are you playing at the beginning of the video?
Is that the intro?
Could you tab that?

Sam said...

when the video gets to 1 minute and 16 seconds. what chords r u playing. cuz it seems like im not playing ur chords right.

oMARz said...

hey when you play the pre-verse,verse, ect. do you go down strocks like on the "introduction" or very fast down and up picks???

robert said...

i know this might seem like a dumb question but for the pre-chorus and pre-bridge what are the actual tabs for what your playing because those power chords look unfamiliar to me in the video
be awesome can tell me how to play and tips for power chords and yea im just beginning to learn electric guitar at church

awesome website =] thanks

wangzi said...

They were so pretty, that I accept they appear in a abutting additional appropriate abaft the replica bag . With this bag getting so gorgeous, I could absolutely see myself application it just as abundant as my “Speedy”, but the prices for the “Multicolor” accumulating are crazy.

Antonio said...

Thank you for this point of difference

Simple Luxury said...

Burberry Outlet Store Online
Handbags Outlet Store Online


www.burberry-outlets.org
www.prada-outlet.org