United Live Preview: All of the Above

Here are songs (or at least four of them) from the new United Live Album, titled "All of the Above" (not to be confused with the Youth Alive one)! I sampled parts of the album from the Hillsong website, and found a few with interesting guitar riffs. Here they are, probably not found anywhere else on the net (for now)!



Tabs
Break Free
----------------------------------------
----------------------------------------
----------------------------------------
------------------------4-4-6-6-4-4-6-6-
------------------------5-5-5-5-5-5-5-5-
-2-2-0-2-2-2-0-2-2-2-0------------------

------------------------
------------------------
------------------------
------------------------
------------------------
-2-2-0-2-2-2-0-2-2-2-0-- D

Chorus: A D F#m D

Devotion
------------------------------------
------10-----10---------7-----7-----
----7------7------7---7-----7-----7-
-s9------9------9---9-----9-----9---
------------------------------------
------------------------------------

Solution (with delay)
----------14-14-14-14-----------14-14-14-14-
-12-11-12--------------12-11-12-------------
--------------------------------------------
--------------------------------------------
--------------------------------------------
--------------------------------------------

----------14-14-14-14--12-12-11-11-------------
-12-11-12--------------------------14-14-11-11-
-----------------------------------------------
-----------------------------------------------
-----------------------------------------------
-----------------------------------------------
(i played the last two notes wrongly in the vid)

----------14-14-14-14-----------14-14-14-14-
-12-11-12--------------12-11-12-------------
--------------------------------------------
--------------------------------------------
--------------------------------------------
--------------------------------------------

----------14-14-14-14--12-12-11-11-------11-11----
-12-11-12--------------------------14-14-------12-
--------------------------------------------------
--------------------------------------------------
--------------------------------------------------
--------------------------------------------------
whoa oh oh!

For All Who Are to Come (with delay-sounds alot like 'An Introduction')
Play each note 16 times (except the last note)
-12-11-14-16--12-11-14-16-------
--------------------------------
--------------------------------
--------------------------------
--------------------------------
------------------------------------

3 comments:

Brian said...

haha wow tabs before the album comes out. this is great stuff. thanks :)

Anonymous said...

ha. wow. thanks man. I noticed that after the
---------------------
------10-----10------
----7------7------7--
-s9------9------9----
---------------------
---------------------
part, you played a "9" where I've put the "?":

--------------------
------7-----7-----
---7-----7-----7-
-?-----?-----?---
-------------------
------------------

It's a beautiful piece.

Anonymous said...

that's on "devotion", Ryan.