Lord I Lift Your Name On High

Here's Sonicflood's take on an old favourite... sometimes its not that an old song sounds old, but rather the arrangement is. See if you can jam out new and exciting arrangements for the older songs!



Tabs
Chorus:
--------------------
-2-3-4-3-------2-3--
-2-2-2-2--(x3)-2-2-- E F#m E D E
-2-2-2-2-------2-2--
-0-0-0-0-------0-0--
--------------------
A

Pre-Verse
-12p10-9h10-9----9--9--
--------------10----10-
-----------------------
----------------------- (x2)
-----------------------
-----------------------

Verse (simplified from the original)
-------------0--
-----2-----2----
---2-----2------
-4--------------
----------------
----------------
F#m . . . . A

-----0------------
---0--------3-----
-1--------2-------
--------4---------
------------------
------------------
E . . D/F#

7 comments:

Anonymous said...

Awsome mate, God bless

David said...

Last album, Glimpse is really great... Thank you

James said...

Thanks, this is my favorite Jeff Deyo arrangement of all time! What about this on the chorus tho:

Chorus:
--------------------
-2-3-4-3-------2-3--
-2-2-4-2--(x3)-2-2-- E F#m E D E
-2-4-4-3-------2-4--
-0-0-0-0-------0-0--
--------------------

Dan Leedham said...

Any heads up on Effects? thanks

kevin said...

thanks man, awesome job too.

JC.Follower said...

Hi, i love this site ! Thanks you so much !

In this song, Lord i Lift Your Name of High, you don't have the part "you are holy, you are awesome, bring your freedom."

Can you make it plz ?

Thanks

God bless

joseph A said...

could you tab out the chourds you are playing i am just not picking them up plwsae thanks