Glory (instrumental)

Here's the instrumental for Glory, some pretty fast solo-ing inside.



Tabs
-----------------------------------------
-----------------------------------------
------9h11p9-11b13r11p9-11b13r11p9-11b13-
-9h11------------------------------------
-----------------------------------------
-----------------------------------------

-------11-12-14-16-16-16-16------
----14---------------------------
-13------------------------------
---------------------------------
---------------------------------
---------------------------------

-14-14-14--12-12-12--11-11-11--
-------------------------------
-------------------------------
-------------------------------
-------------------------------
-------------------------------

Fast part:
-11h12p11p9------------------------------------
------------12p9-------------------------------
-----------------11p9-------------------9h11p9-
----------------------11p9---------9h11--------
---------------------------11p9h11-------------
-----------------------------------------------

---------------------12-14s16-14--14-
------------------12-----------------
-11b13-11b13---13--------------------
-------------------------------------
-------------------------------------
-------------------------------------

-12-11h12p11---------
-------------12-12---
---------------------
---------------------
---------------------
---------------------

8 comments:

John said...

Great tab Kenny! Awesome, man!

sinigangsternoel said...

heyy kenny can i ask what effects you used?

Raksa said...

can you do another instrumental but slower?
the one problem i have is the

11b13r11p9

i dont understand how you do all that.

Anonymous said...

its not the whole lead part... its only the second half...

T.A.G. Body Spray said...

what key is this in?? and if not can u transpose it to E for me?

DanKim said...

This is in the Key of E

invaderzboy said...

What chords are use in instrumental?tnx

icthus said...

What?!
That was considered a pentatonic scale...(fast part)

if I'm correct, C# aeolian mode