Let Creation Sing

Here's Let Creation Sing, as requested. This is a great song to start off the service: its about singing unto God, and is neither too fast nor too slow.



Tabs
Intro
(strum)
-----------------------------
-13--12--12--15--------------
-12--12--12--14--------------
-----------------------------
-----------------------------
-----------------------------
You can try using some delay, and wah too.

Verse
-----------------------------
-15--15--12--13--------------
-14--14--12--12--------------
-----------------------------
-----------------------------
-----------------------------

Bridge
-----------------------------
---8---8--7------------------
------------7--7s9-----------
-9---10------------10--------
-----------------------------
-----------------------------

1 comment:

JeffreyvdK said...

It is very simple but sounds very nice!