Emmanuel (God He Reigns)

Here's Emmanuel from Hillsong's God He Reigns, and is based on (not exactly alike) the acoustic version found in the DVD. There're plenty of subtle clean chords in there, something which I like to use alot when I play the slower songs. Apply some delay to create an 'airy' sound.




Some notes are meant to be louder than others, for example the melody line in the intro. However, it is kinda hard to control the expression while doing such quick string skips, so I used my fingers instead. Nigel picks all the way in the DVD though, so this is probably something to work towards.



Tabs

Intro
(4 notes per beat)
-9-------9-------9-------7----------------
-----0-------0-------0-------0------------
---9---9---9---9---9---9---8---8----------
------------------------------------------
------------------------------------------
------------------------------------------

-4-------4-------2-------0----------------
-----0-------0-------0-------0------------
---4---4---4---4---4---4---4---4----------
------------------------------------------
------------------------------------------
------------------------------------------

Verse
-------0--------0--------7------4---------
-----7--------9--------5------5---------7-
---9--------9--------6------6---------8---
-9--------9--------7----------------9-----
------------------------------------------
------------------------------------------

Chorus
(4 notes per beat)
-------0-------------0------------0-------
----10---10--------7---7--------9---9-----
-11---------(x4)-8-------(x2)-9-------(x2)
------------------------------------------
------------------------------------------
------------------------------------------

(2 notes per beat)
-------7---------0-----
-----5---------7----7--
---6---------8---------
-7---------9-----------
-----------------------
-----------------------

3 comments:

Anonymous said...

Too awesome...thanks so much =)

tmt7 said...

i had an idea. try to play when the instrumental comes in first string: 9--7---4---7----2-4--2---0

then holy holy... God of Mighty
9--7---4---7----2-4--2---0

tmt7 said...

then there is none like you
....E --9--7--4--7----2~--

it has the same notes that the intro. :D