From the Inside Out (Hillsong Instrumental)

I tabbed out the United version some time back, and forgot all about the Hillsong one. Here it is:



By the way, I used an octave shifter, or something like that - the effect doubles what I play, but one and two octaves lower, creating a heavier sound.

Tabs
-------8-------8------------
-----8-------8-------8------
-8h9-----8h9-----8h9-------- (x2)
----------------------------
----------------------------
----------------------------

-----------------------------
-13-10-12--------------------
----------12s14-14s7-7s9s7s5-
-----------------------------
-----------------------------
-----------------------------

-----------------------------
-8-8s10-10s12-12-12s15-15-15-
-----------------------------
-----------------------------
-----------------------------
-----------------------------

-----12-------12-------12-------12-------15-
--------13-------13-------13-------13-------
--14-------14-------14-------14-------14---- (x2)
--------------------------------------------
--------------------------------------------
--------------------------------------------

--------------------------15-------15----17-
-----12h13p12----12h13p12----12h13----13----
-14-----------12----------------------------
--------------------------------------------
--------------------------------------------
--------------------------------------------

8 comments:

GabonMx said...

Thanks for this instrumental the united version is little complicate for me, but this is great, thanks

VeNoM said...

dude i think this guitar sounds better than the oter one.. i dont know why but thats what i think

kenny said...

Thanks for the feedback.. the silver one is made of Ash, which I think is brighter than the blue guitar which is made of Mahogany, which gives a relatively warmer & thicker tone... generally i prefer to use the silver one for leads and the blue one for rhythm.

Anonymous said...

are you sure the very first part is right? it kinda doesn't seem like it. is that because i don't have that octave pedal? im not trying to be picky or anything, but maybe im wrong. thanks though!

kenny said...

Having an octave pedal doesn't really change the notes to play.. can you tab out what you think the first part should be like here?

Brian said...

instead of 8h9 it should be 9h10

kenny said...

You're absolutely right.. thanks Brian.. updated the tabs here: http://guitarpraise.blogspot.com/2006/10/from-inside-out-intro-verse.html

kenny said...

whoops.. tried to update but the server isn't working.. will do it later.