The Time Has Come

As with Take it All, the previous 'The Time Has Come' posts mainly consisted of variations on the guitar parts. Here's the tabs for the guitar as played in the cd, but as before I picked everything because I don't know the delay settings used in the cd.



Tabs
Verse
(pluck each note 4 times)
------------------------------
-------------------
-------------------12-14-------------------12-14-
-14-14-14-14-14-14-------13-13-13-13-13-13-------
------------------------------
-------------------
-------------------------------------------------
-------------------------------------------------

(resume normal playing) This portion is used for the instrumental as well.
-------------------------------------------------
-------14----14---------14----14-------14----14--
-11-11----11-------------------------------------
------------------12-12----12----14-14----14-----
-------------------------------------------------
-------------------------------------------------

----------------------------
-14-------------12-12-------
----14-14-14-14-------14----
----------------------------
----------------------------
----------------------------

Pre-Chorus
(play each note 4 times, except for the last note)
------------------------------
--------------
-------14-15-----12-14-15--------14-15--15--
-13-14--------14-----------13-14--------14--
--------------------------------------------
--------------------------------------------
--------------------------------------------

Bridge
Harmonics
-------------(7)-----(5)-(5)---
-----(7)-(7)-(7)-(5)-(5)-(5)---
-(7)-(7)-(7)-----(5)----------- followed by
-(7)--------------------------- a slide down
------------------------------- the E string
-------------------------------

(play each note 4 times)
-------------------------------------------------
-14-14-14-14-14-14-14-14-15-15-15-15-15-15-15-15-
-------------------------------------------------
-------------------------------------------------
-------------------------------------------------
-------------------------------------------------

-------------------------------------------------
-14-14-14-14-14-14-14-14-------------------------
-------------------------14-14-14-14-13-13-13-13-
-------------------------------------------------
-------------------------------------------------
-------------------------------------------------

Here're some add-ons by Jerome:




The Time Has Come Pedal Settings

40 comments:

Anonymous said...

Thank you so much for your ministry!!!!!

GabonMx said...

what effect settings u use for this part

Bridge
Harmonics
-------------(7)-----(5)-(5)---
-----(7)-(7)-(7)-(5)-(5)-(5)---
-(7)-(7)-(7)-----(5)----------- followed by
-(7)--------------------------- a slide down
------------------------------- the E string
-------------------------------

kenny said...

I used distortion, with a tad bit of delay, nothing fanciful.

Anonymous said...

Er... What about the intro when the drum come in? Is it the same as the starting intro?

kenny said...

just keep playing the 14th fret of the G string..

Anonymous said...

Is there a riff for chorus?

kenny said...

not really, you can get by with power chords.

Anonymous said...

...

But I know there is some kinda riff there, when the line before "...praise goes out to you" part...I saw M.G. doing some riffs there and you can hear it...

It's just kinda hard to pick up...

kenny said...

Ah yes.. its sth like
----------------
-10-9-----------
------11-8------
----------------
----------------
----------------

Anonymous said...

kenny how can you play 2 strings at a time on the bridge were it says "harmonics"?
pliss help me.
God bless!

kenny said...

It can be done, use one finger for your fretting hand to touch two strings lightly since they're on the same fret.

temo said...

hey in the instrumental if you listen closely, there are some high notes that they play at the end and also during the last part of the instrumental, can you tell what notes they are?

Davide said...

Great Work....really useful to me.. i play hillsong cover with my bands! thx for the help and dont stop to do that!

thanks!!!

Anonymous said...

hey.. whats the second guitar on the bridge? can anybody make a tab of it? thanks!

Anonymous said...

hello! whats the second guitar on the bridge? can anybody make a tab of it? thanks.. or just email the tab at dxh_rules@yahoo.com

thank you so much! God Bless!

Anonymous said...

Hello guys, could you tell me please, how i can get tone for my line 6 pedal, like the hillsong tones..?

-YeaNwerN- said...

hey kenny... i was wondering if you could give me the tabs for the chorus of this songs.... or just send it to yeanwern@gmail.com.

thanks, God bless you

kenny said...

Just use power chords, and play:
A F#m D A

Anonymous said...

Hey Kenny.
Thanks a lot for this tab and video. I've wanted to play this song for a while and when I found this one it helped me a lot.

Anonymous said...

Heyy!, which Ibanez is that that you are playing......I am just now in the market for a new guitar and I play alot of united stuff for my church and I really like how close of a sound you get. There are a few models that look identical to yours but with different price variations, I would really appreciate it! thanks for all the AWSOME tabs and please keep it up!!

Anonymous said...

Hi there Kenny thanks a lot for the tab time has come oh by the way bro. can you give me the tab you can hear it in the chorus ...."praise goes out to you" please thanks godbless you

Nic said...

This is what I play for he chorus riff. Just simple octaves. Listen to the song for timing. There's a lot of fast sliding.

"In everything I do..
----------------------------------
----------------------------------
-7-7-7--9-9-9-9s14-14s13-13s11-11s9
----------------------------------
-5-5-5--7-7-7-7S12-12s11-11s9--9s7
----------------------------------

Anonymous said...

hey, just a quick question, im using the Ibanez DE7 delay pedal, what would i set it on to make the delay similar to what you use?

eljon said...

Kenny..they use the kick drum effects..for the time has come...

eljon....philippines..

Anonymous said...

kenny.. i dont understand the bridge can u email me..plz
my mail is ivan_gonzalez93@hotmail.com

thnx bro..

Anonymous said...

thank you so much for this! God bless!

Anonymous said...

hey man, thanks alot for all you do.

p.s. not to be rude but are you the guy who does the canon song on youtube?

kenny said...

nope.. I'm not that good!

Colin said...

hey this is wrong he plays it on the 2nd string at 10.

aguilasdelamerica11 said...

So in the time has come song
Jad does the first guitar part in the video?

dannyyi said...

http://www.youtube.com/watch?v=0VveLIZfOhs

thats the exact setting the guitarist from united uses.

LifeLogic? said...

Heyyyyy I found really Great Rig IF u have POD XT LIVE. i found a perfect rig. the rig is Amp MODEL 2001 Treadplate Dual, NO CABINET drive on 11o clock. Bass and Middle and Presence at 2 o clock. treble at 4 o clock. volume at 11 oclock. Stomp On SCREAMER all 50%. any EQ, Delay is on DIGITAL DELAY at 238ms or dot 8, Feed back 61% and everything else 50%. REVERB on dwel and tone 50% and mix on 27%. There you go :D

jem_cookies said...

can you mail me the exact tab of the bridge? pls..

thanks very much.. i need to practice it.. ^^

here's my email-add ..

: jem_weiner18@yahoo.com

Lacus said...

Hey it is so amazing!!! Thank !!!
I learnd this song easily.This page is very good and helpfull.Do you play guitar in a christian music band?
God Bless!

Joshua said...

are you using alternate picking with delay for this song? or are they downstrokes with the help of the delay

Justin said...

Hey what chords is Jerome using for the Chorus?

Antonio said...

thank you very much

joseph.kim38 said...

how do u play the intro

123 said...

And afresh forth came a little dejected book alleged cheap Viagra - and a agglomeration of added big name brands followed in its wake.The accountable was acutely not one that was sometimes debated - not in the media, not a part of men, not even with doctor's lots of the time. It is a rotten abstruse kept cloistral in the bedrooms of affronted men and their anxious added behindhand and lovers.

Jun said...

hes using Bar A , F# , Power chord D, and Bar A again