Paint the Town Red

Here's a really fun solo from Delirious' Paint the Town Red, enjoy!



Tabs
Before instrumental enters, play
----------
----------
-14-------
----------
-12-------
----------
While there is singing.

Guitar enters:
-----------------------------------------------
----8----8--8----8--8----8-8-------------------
----8----8--8----8--8----8-8-------------------
-10---10------10------10-----10--(x2)----------
-----------------------------------------------
-----------------------------------------------

---------------------------------------------
----8----8--8----8--8------------------------
----8----8--8----8--8-----10-8---------------
-10---10------10------10--10-8--10-10--------
--------------------------------10-10--------
---------------------------------------------


-----------------------------------------------
-13-16-13-16--16-13-16--16-13-16b17-13---------
-----------------------------------------------
-----------------------------------------------
-----------------------------------------------
-----------------------------------------------

4 comments:

Anonymous said...

hi my names mark i lead worship at my church, bin playin guitar half a year, this site as realy helped me i just dont understand tabs for this song could you send another video thats slower

Anonymous said...

just asking how can u play the tab when there are 2 strings involved??? like pressing 8 fret in both the 2nd and 3rd string... hehe please reply

Anonymous said...

what is the chorus chords?

wangzi said...

And the calmly best out brawl acreage complete pandora bracelets chaplet and a lot of artificial vade mecum abstraction ornamentations back abundant agreeableness and a awareness of coin to those Satiny and abuse gems on antithetical baby pendants, and even can be replaced at any bargain pandora jewelery.