I Believe

Here's the intro, verse, and instrumental to I Believe, in Planetshakers' less well-known "My King" album.



I couldn't get rid of the picking sounds for the intro/verse, unfortunately. Anyone has any tips?

Tabs:
Verse/Intro
---------------------|------------------------
---------------------|-5-5-5------------------
--------9--9-9--9-9--|-6-7-6--(strum the last-
-9s11---11-9-11-9-11-|-0-0-0-0--chord)--------
-0----0-0--0-0--0-0--|------------------------
---------------------|------------------------

Pre-Chorus
-----0-----0-0--|----------0-----0-0--
-------------0--|------------------2--
-1-2---1-2---2--|-(x2)-1-2---1-2---1--
-------------2--|------------------0--
-------------0--|---------------------
----------------|---------------------

Instrumental (just the notes)
-------------|------------
-14-12-15-14-|-------10---
-------------|-(x3)-------
-11-9--12-11-|-------7----
-------------|------------
-------------|------------

1 comment:

Jean Fredrik said...

Hi, great job with the song, keep up the god work, ut i can't figure out how to play the instrumental, it always sound so wierd