Take it All (acoustic)

Many of United Live's songs are bass driven, and incorporating these bass elements into the acoustic guitar makes for a more interested acoustic riff, whether for cell group or service.



Tabs
Rhythm Part
---------------------------------------
---------------------------------------
---------------------------------------
---------------------------------------
-9---9-9--9---9-9--9---9-9-9-6-6-------
-6h7-7-7--6h7-7-7--6h7-7-6-6-7-7-------

Lead Part (no vid)
----------------------------------11-11
-14-14-14-12-12-12-12-12-12-11-11------
---------------------------------------
---------------------------------------
---------------------------------------
---------------------------------------

----------------------------------14---
-14-14-14-12-12-12-12-12-12-11-11----11
---------------------------------------
---------------------------------------
---------------------------------------
---------------------------------------

----------------------------------11-11
-14-14-14-12-12-12-12-12-12-11-11------
---------------------------------------
---------------------------------------
---------------------------------------
---------------------------------------

------------------------------------------
-14-14-14-12-12-12-12-12-12-11b12r11------
-------------------------------------11---
----------------------------------------9-
------------------------------------------
------------------------------------------

3 comments:

bleed4fun said...

hi my name is cj..i am really much interested in learning instruments.i play rythms but as of this time still working on it to improve my skill that i may express it more deep and freely for god...i have hard up times with tabs with pull offs and hammer but i am able to play anyway with praktice..thanks for this blog that helps me..

Petteri said...

Hello!

Nice working brother with these songs. I have been playing worship/praise music 5years and these tabs helped and blessed me very much. I know all these chords, but i have learned many new licks and ideas..

Thank You so much. Keep working brother.

Tumppu from finland

Bao said...

wow ur really amazing!
keep up the good work!
remember, its all for God!