Fire Fall Down

By Ronald

Intro, Verse, Prechorus
Well here it is....



Sound wise go for a clean strat type tone(Vox amp!!?).

I Think Michael Guy Chisllet uses it to for this recording when he overdubbed the track.

Delay is also needed for this track. The exact setting is 73 bpm with the delay set for the dotted eight note setting. So that is 625ms. Go between 1 and 2 repeats. That’s how you get the bell like tone. MGC is a real fan of the Edge, so that’s where his inspiration on this song came out he told me.

The song is in the key of F#, so you can put a capo on the second fret for playing in E.

That’s a lot easier and nicer sounding with the open e and b string.

Intro
|-----------------|------------|------------|------------|
|------------11---|-14--12-----|-11---------|------------|
|----11-13--------|------------|--------13--|--11--------|
|-11--------------|------------|------------|------------|
|-----------------|------------|------------|------------|
|-----------------|------------|------------|------------|

|-----------------|------------|------------|------------|
|------------11---|-12---------|-11---------|--12--------|
|----11-13--------|-----11-----|-----11-----|------11----|
|-11--------------|------------|------------|------------|
|-----------------|------------|------------|------------|
|-----------------|------------|------------|------------|

|-----------------|------------|------------|------------|
|--11p9-11--------|------------|------------|------------|
|-------------11--|------------|------------|------------|
|-----------------|-11----9----|------------|------------|
|-----------------|------------|--13p11-13--|--9-11------|
|-----------------|------------|------------|------------|

Verse 1
F# B C# F#
|---------9-|----|-----------|-------------|-------------|
|-----------|-12-|-14--------|-------------|-------------|
|-11---11---|----|----13-----|------11-----|-------------|
|-11--------|----|-------11--|-13p11--11---|------11-----|
|-9---------|----|-----------|----------13-|-13p11--13—--|
|-----------|----|-----------|-------------|-------------|

F# B C# F#
|------9----|----|-----------|-------------|-------------|
|-------11--|-12-|-14--------|---------11--|-------------|
|---------11|----|----13-----|------11-----|-11----------|
|-----------|----|-----------|-11h13-------|-------------|
|-9---------|----|-----------|-------------|-------------|
|-----------|----|-----------|-------------|-------------|


Pre Chorus 1
B C# B C#
|---------|---------------------|----------|-------------|
|-12------|-14------------------|-12-------|-14----------|
|---11----|----13---------11----|----11----|----13-------|
|-----9---|------11--11h13--11--|----------|-------11----|
|---------|---------------------|----------|-------------|
|---------|---------------------|----------|-------------|

There is also a tremolo picked high note played at the beginning of the song by MGC on the dvd. This is the note to play.

|------|
|--19--|
|------|
|------|
|------|
|------|

That’s all for this Part.


Chorus 1, Verse 2
(from 2:08 to )

The settings are still the same as with above. Keep the notes even and let the strings ring out clearly. I put the capo on the second fret for the open string licks. The video didn't sync properly with the sound at the end, somehow.


Here’s the tab (All notes and chord names are relative to capo II).

Chorus 1

E A E A
|-------------|-------------|-------------|-------------|2x
|-12-12-12-12-|-10-10-10-10-|-9--9--9--9--|-10-10-10-10-|
|---9--9--9--9|---9--9--9--9|---9--9--9--9|---9--9--9--9|
|-------------|-------------|-------------|-------------|
|-------------|-------------|-------------|-------------|
|-------------|-------------|-------------|-------------|


Verse 2
E
|----------0--|
|-9p7-9-5—--0-|4x
|-------------|
|-------------|
|-------------|
|-------------|

A
|------------0--|
|-10p9-10-5—--0-|2x
|---------------|
|---------------|
|---------------|
|---------------|

B
|----------0--|
|-4p2-4-0—--0-|2x
|-------------|
|-------------|
|-------------|
|-------------|

E
|----------0--|
|-9p7-9-5—--0-|2x
|-------------|
|-------------|
|-------------|
|-------------|

A B A B
|-------12----|-11-------11---|------12------12-|-11-
|-10-10-------|---12---12--12-|-10-10---10-10---|-12-Strum
|---9---------|-----11--------|---9-------9-----|-11-
|-------------|---------------|-----------------|----
|-------------|---------------|-----------------|----
|-------------|---------------|-----------------|----

That’s all for part 2. More to come.

18 comments:

Anonymous said...

hey i really appreciate all the effort you are doing to video and tab these things out. I play lead electric for my church and this has been a really good resource for me.

Keep of the good work.

Shane

Josh Brickey said...

Thanks for the work on the tabs. I'm fairly new to effects and I have one question. Exactly what pieces of equipment would I need to get the delay set to match that? I have a Vox AD60VTX. Thanks!

Anonymous said...

Hi Josh,

Sorry for the late response but i had some problems with my PC.

Good pedals for these kind of tones are. Line6 echopark and the boss DD5. But i think that you can you can make the sounds with your VOx to.

A delay contains mostly a Feedback controle, this is for how many repeats you want the delay to ring. For this song it is between 1 and 2. The most important control is the speed or time control. You have to set this one by ear. Listen closly to the fisrt part of the song. you can here the delay ring there clearly. Match your delay sound with that. The other control you mostly have is the output of the delay effect. Set this one a bit lower that your guitar volume.

Hope it helps.

If you need any help just ask.

God's bless

Ronald

Anonymous said...

Can you pliss tab the rest of this song?

Anonymous said...

pliss finish tabing this song

Anonymous said...

kenny pliss finish this song i need it for thursday

Brian said...

Ronald... all i can say is thanks man... all you guys, this is awesome to see something this cool for the Lord. i play this song on my tele through an AC30 and i use the dd-5 dotted 8th delay... sounds fantastic. thanks for everything

Anonymous said...

your are really good, i just want to say thank you for help people to praise the lord. I play guitar in my church and this website has been very useful for me....

p.turner27 said...

Hey man your stuff is amazing,is there anyway you could post the tab where it starts to sing Fire Fall Down?

Anonymous said...

Hey ronald is there a link to the bridge of fire fall down?

Anonymous said...

at first i couldnt read the tabs...but i copy and pasted it to a word document....AWESOME JOB!!

Thomas said...

Hey Ronald, awesome job tabbing!

just make sure you tune up before you go, next time.

Anonymous said...

Actually the tab at the top is what is played by Marcus beamont. MGC i9s playing a really fast guitar line at this point

Anonymous said...

is that a baja telecaster or a hot rod deluxe?

Ken said...

Thanks so much. But, I'm kinda confused about something. Do you ADD 2 or subtract 2 from the fret numbers if you don't have a capo on...?

Mark said...

tune ur gat ;p

ken2012 said...

For those who wish to acquaintance the adorableness and affluence of toywatch plasteramic turquoise but don't wish to absorb abundant money, they should go for added ideal options. Affairs buzz affluence watches are realistic, as continued as they attending accomplished and plan in acceptable condition.

Lucas Arratia Cisterna said...

hey very well GOD BLESS