None But Jesus (instrumental)

Here is the instrumental portion for None but Jesus.. I would say that that the 1st & 3rd quarters are more contemplative, and the 2nd & 4th quarters (with the more difficult riffs) bring up the mood to the climax at the bridge. Thus, remember not to just play the notes, but infuse them with feeling. A simple example would be to play louder towards the end of the 2nd and 4th quarters of the song.



Tabs:
--------------------------------
-4-4-4-5-7-----------4----------
-----------4-6---4h6---6p4------
---------------------------4h6--
--------------------------------
--------------------------------

---------------------7-----9----9s11-
-4-4-4-5-7---------------------------
-----------4-6--4-6s8--8s9--9s11-----
-------------------------------------
-------------------------------------
-------------------------------------

---------------------------------
-4-4-4-5-7-----------4----------
-----------4-6---4h6---6p4------
---------------------------4h6--
--------------------------------
--------------------------------

-----------------------7-----------
-4-4-4-5-7-----------4---7-7-------
-----------4-6---4h6-------6b8r6-4-
-----------------------------------
-----------------------------------
-----------------------------------

4 comments:

Anonymous said...

hey hello!..i'm JOSUE i'm from Peru i belong to CAMINO DE VIDA church, i play the electric guitar in the TEEN service in my church and ¡u so rock man! you have helped me a lot..thanks man i'd like you to check camino de vida's webb site www.caminodevida.com
my e mail: josue_ws14@hotmail.com
i'd like to talk to you

David said...

I am trying to figure out what tech. ----7----9------11
------------------
6s8--8s9--9s11--

this is called and how it is used.

David said...

where you are one the g and e string or g or b string

john said...

what key is this in?