Better Than Life (bridge)

Here are the tabs for Better Than Life's bridge. It uses very fast alternate picking, and was challenging for myself too. As always, start at a slower pace, and then build up your speed as you practice.




Tabs:
------------------------------------
------------------------------------
-8-8------------10-10---------------
-----10-10-(x2)-------11-11-(x2)----(x2)
------------------------------------
------------------------------------

------------------------------
-8-8----------9-9-------------
-----8-8-(x4)-----8-8-(x4)----
------------------------------
------------------------------
------------------------------

Repeat the above again, followed by:

-------------------------------------------------
-------------------------------------------------
-------------------------------------------------
-------------------------------------------------
-------------------------------------------------
-4-4-4-4-4-4-4-4-6-6-6-6-6-6-6-6-8-8-8-8-8-8-8-8-

-------------------------------------------------
-------------------------------------------------
-------------------------------------------------
-------------------------------------------------
-4-4-4-4-4-4-4-4-6-6-6-6-6-6-6-6-6-6-6-6-6-6-6-6-
-------------------------------------------------

--------------------------------------
--------------------------------------
------------------6--6---6--6---------
------------------6--6---6--6---------
-8-8-8-8-8-8-8-8--4--4---4--4---------
--------------------------------------

5 comments:

Anonymous said...

heyy great tab but theres just one problem, on the first line of the bridge tabs, you wrote it on the B string instead of the D and G

Anonymous said...

can u plzz write, or type i guesse, the chorus?!?
plz and ty
God bless

Anonymous said...

hi nice tab but can someone post the intro to this song please? thanks alot God bless!

Kevin said...

I use the power chords, I'm not really sure though

-------------
-------------
----8-----6--
-6--8--3--6--
-6--6--3--4--
-4-----1-----

-Kevin Lee (NKPC)

Joe said...

Thanks Ken