You Deserve (variations)


By Kenny

Here's "You Deserve" by Hillsong, from their "This is Our God" album. We've been playing it a lot in church recently, so I've put in a few new riffs to make things a little more varied. The "video" is actually just a sound recording from the service, and there's no video. 



Verse
Just strum these chords [E5, E5maj7, A, A5maj7]
---------------------------------
---------------------------------
-9--8---2--1---------------------
-9--9---2--2---------------------
-7--7---0--0---------------------
---------------------------------



Pre-chorus
Use the usual dotted 8th note delay
---------------------------------
-5--7--9---4--2------------------
-6--8--9---4--2------------------
---------------------------------
---------------------------------
---------------------------------

Strum F#m, then go to the chorus

Chorus
Might sound nice with a slight touch of 8th note delay. 
---------------------------------
-10---9-------10--9--------------
-9----9---4---9---9--6--4--------
-7----9---4---7---9--6--4--------
----------2----------4--2--------
---------------------------------

---------------------------------
-10--9---------------------------
-9---9--6--4----2--4-------------
-7---9--6--4----2--4-------------
--------4--2----0--2-------------
---------------------------------

6 comments:

starall said...

Shop Discount Miami Dolphins jerseys, hats, t-shirts. Free shipping on any order. Browse through hundreds of the latest Miami Dolphins arrivals including Texans Nike jerseys, iphone case, for women, men, & youth.
Cheap Hats Free Shipping

Bossy said...

And, finally, a complimentary photo of me.
Cheap NFL Jerseys
Cheap Jerseys

dior anthony said...

All bloggers should read this blog.All bloggers should read this blog.
Wholesale Jerseys

Matt Summers said...

please come to http://fretstyle.com/guitar/secrets/ to get skills that will allow you play better and faster, with more feeling too!

Barb Granneman said...

Very nice post, If you want to find seasoned music educator likeLocal Guitar Lessons.

cecillia said...

Nice info. Thank you.
all face the problem. finish with a calm heart kawasaki ninja h2r and brain are cold and are trying so hard ...