You

By Christian

Here's You by Hillsong United.



Key of B

INTRO:

----------------------------------------------------------------------
-------12-(x6)--14-(x3)--16-(x4)--12-(x4)-----------------
--------------------------------------------------------11-(x6)----  (X4)
----------------------------------------------------------------------
----------------------------------------------------------------------
----------------------------------------------------------------------

Don't play the F# the last time around 


VERSE:

B F# E B

-------------------------------------------------------------------
------------12-----11------9------12--------------------------
-------------------------------------------------------------------  Play the Octaves the 2nd time the verse repeats 
-------------9-------8-------6-------9--------------------------
-------------------------------------------------------------------
-------------------------------------------------------------------


PRE CHORUS:

--------------------------------------------------- ---------------------------------------------------
--------------------------12-(x3)--11-(x3)--- -------9-(x3)------------------------------------
-----8-(x3)--11-(x3)--------------------------  (X3)     -----------------11-(x3)--8-(x6)--------------
--------------------------------------------------- ---------------------------------------------------
--------------------------------------------------- ---------------------------------------------------
--------------------------------------------------- ---------------------------------------------------



CHORUS:

B F# E B

----------------------------------------------------------------------
-------12-(x6)--14-(x3)--16-(x4)--12-(x4)-----------------
--------------------------------------------------------11-(x6)----
----------------------------------------------------------------------
----------------------------------------------------------------------
----------------------------------------------------------------------

----------------------------------------------------------------------
-------12-(x6)--14-(x3)--16-(x4)--12-(x4)---11-(x6)----
----------------------------------------------------------------------  
----------------------------------------------------------------------
----------------------------------------------------------------------
----------------------------------------------------------------------

------------------------------------------------------------------------------------
-------12-(x6)--14-(x3)--16-(x4)--12-(x4)----17-(x3)--16-(x3)-----
------------------------------------------------------------------------------------
------------------------------------------------------------------------------------
------------------------------------------------------------------------------------
------------------------------------------------------------------------------------

--------------------------------------------------------
-------12-(x6)--14-(x3)--16-(x4)--12-(x8)---
--------------------------------------------------------  
--------------------------------------------------------
--------------------------------------------------------
--------------------------------------------------------

The Chorus is very similar to the intro except for the last notes in each section



The "Whoa Whoa Whoa" Part

---------------------------------------------------------------
---------------------------------------------------------------
----4--6--8--------4--6--8--6-------4--6--9--8--8----
---------------------------------------------------------------
----2--4--6--------2--4--6--4-------2--4--7--6--6-----
---------------------------------------------------------------


BRIDGE:  


---------------------------------------------------------------
-------12----16----9----11--------------------------------
---------------------------------------------------------------  (Go back to pre-chorus)
---------------------------------------------------------------
---------------------------------------------------------------
---------------------------------------------------------------

Use kind of a like a swell delay for this part (Sorry for the slight wrong note I played here)

1 comment:

cecillia said...

all had been presented with a perfect through this website .. sharp and accurate information reliable .. thanks you have willingly shared specifications and price with us.