Greater than All

By Aaron


This is a tab for Greater Than All from the Cornerstone album.



Intro/Interlude:
Neck pickup. Tone about 2/3
Clean Boost


      Em                  G                        C                                                        D/F#
e-----------------------------------------------------------------------------------------------------------------------|
B------9---9---9---------12---12---12--------5---5---5----5---5---5----5---5---5----7---7---7-----------|
G------------------(x2)-------------------(x2)-----------------------------------------------------------------------| (x2)
D--10------------------12---------------------5-------------5--------------5-------------7------------------------|
A-----------------------------------------------------------------------------------------------------------------------|
E-----------------------------------------------------------------------------------------------------------------------|

Second time around hold the C

Verse:
      Em                        G                              D
e-----------------------------------------------------------------------------------------------------------------------|
B------9---9---9----------12---12--12---------7---7---7--------------------------------------------------------|
G-----------------(x2)---------------------(x2)---------------(x4)--------------------------------------------------|
D--10------------------12----------------------7--------------------------------------------------------------------|
A-----------------------------------------------------------------------------------------------------------------------|
E-----------------------------------------------------------------------------------------------------------------------|
      Em                        G                              C                        D
e-----------------------------------------------------------------------------------------------------------------------|
B------9---9---9----------12---12---12-------5---5---5---------7---7---7-------------------------------------|
G-----------------(x2)---------------------(x2)--------------(x3)---------------------------------------------------|
D--10------------------12----------------------5------------------7------------------------------------------------|
A-----------------------------------------------------------------------------------------------------------------------|
E-----------------------------------------------------------------------------------------------------------------------|

Chorus:
        D                      C                            G
e-----------------------------------------------------------------------------------------------------------------------|
B-------------7h8----------------7h8-------------------------------------------------------------------------------|
G---------7------------------7----------------------------------------------------------------------------------------|
D----7------------------5---------------------------------------------------------------------------------------------|
A-----------------------------------------------------------------------------------------------------------------------|
E-----------------------------------------------------------------------------------------------------------------------|

Instrumental:

I've added quite a bit of overdrive here and switched to bridge pickup
                C              G/B  C        G    G/B  C        G            D/F#
e-----------------------------------------------------------------------------------------------------------------------|
B--12----5---5---5---12---5---5---7---12---5---5---3---8---10---10---10---(x2)------------------------|
G-----------------------------------------------------------------------------------------------------------------------|
D-----------------------------------------------------------------------------------------------------------------------|
A-----------------------------------------------------------------------------------------------------------------------|
E-----------------------------------------------------------------------------------------------------------------------|

Bridge:
Playing 16th notes

      C        Em            D          C          Em      D
e---12-----10-----------5-------12-------10-----15------14----------------------------------------------------|
B-----------------------------------------------------------------------------------------------------------------------|
G-----------------------------------------------------------------------------------------------------------------------|
D-----------------------------------------------------------------------------------------------------------------------|
A-----------------------------------------------------------------------------------------------------------------------|
E-----------------------------------------------------------------------------------------------------------------------|

8 comments:

billy said...

I think you got the Em part on the verse wrong. It sounded wrong It should be 9th fret on D and 8th fret on B

aboy1618 said...

good work
http://guitartabhot.blogspot.com/

SteveBrad said...
This comment has been removed by a blog administrator.
Irvine Lampson said...

Good Job!!
Forzest

malliga said...

Wow. Really nice. Thanks for provided a guitar sheet music for this song..

Rando Menguito said...

nice one!! it's really nice
thanks!
New music

Frank Smith said...

hey nice one...
Generic protonix

cecillia said...

thank's for info, very nice, easy to understand and remains toyota price always a great web success .. yaaa :)