Rooftops

By Aaron

Here is a tab for the song "Rooftops" from the Jesus Culture album "Come Away." I used the bridge pickup and the same effects throughout the song:
Overdrive (See video for settings)
Dotted 8th note delay (E.Level 40%, Feedback 25%)
Reverb (Dwell near full, a little feedback).



Intro:
        C#m                                              A
e-------------------------------------------------------------------------12---------------------------------|
B-------------9-------------------9------------------9---------9h10------10-------9--------------------|
G------------------------9h11---------9-------------------------------------------------------------------|
D---11--------------------------------------7--------------------------------------------------------------|
A-------------------------------------------------------------------------------------------------------------|
E-------------------------------------------------------------------------------------------------------------|
        C#m                                            A                                                            C#m
e-----------------------------------------------------------------------------12-----------------------------|
B-------------9------------------9-------------------9---------9---10--------------9---------------------|
G-----------------------9h11---------9--------------------------------------------------------------------|
D---11-------------------------------------7----------------------------------------------11--------------|
A-------------------------------------------------------------------------------------------------------------|
E-------------------------------------------------------------------------------------------------------------|

Verse:
"Here I am before you...."
    C#m                      B                      A                    B              C#m                  B
e-------------------------------------------------------------------------------------------------------------|
B-------------------------7----------------5-----------------7-------------------9------------------7-----|
G-------------------------8----------------6-----------------8---------------------------------------------|
D-------------------------9----------------7-----------------9------------11---------------9-------------|
A-------------------------------------------------------------------------------------------------------------|
E-------------------------------------------------------------------------------------------------------------|

Pre- Chorus:
"So I stand before you God...."
        F#m                C#m                    E                      B
e------0-----------------0------------------0----------------------------------------------------------------|
B-----10----------------9------------------7------------------7--------------------------------------------|
G-----11----(x8)------9------(x8)-------9----(x8)---------8----(x16)---------------------------------|
D-----11---------------11-----------------9------------------9--------------------------------------------|
A-----9-----------------11-----------------7----------------------------------------------------------------|
E------------------------9------------------------------------------------------------------------------------|

Chorus:

First time play these chords:

"So I shout out your name"

E / / / | / / / / | B / / / | / / / / | C#m / / / | / / / / | A / / / | F#m / / / |

Second time, when the chorus is done twice, hold the A for two bars, instead of playing the A then F#m.

Bridge:
Same chords as the Chorus

"Here I am, I stand......"

e--------------------------------------------------------------------------------------------------------------|
B--------------------------------------------------------------------------------------------------------------|
G--13-(x8)--s14--14s13--13--s11-11---s9--(x4)--------------------------------------------------|
D--------------------------------------------------------------------------------------------------------------|
A--11--------s12--12s11--11----s9---9---s7---------------------------------------------------------|
E--------------------------------------------------------------------------------------------------------------|

e--------------------------------------------------------------------------------------------------------------|
B--------------------------------------------------------------------------------------------------------------|
G------13--(x8)s14-14-s13-13s11-11-s9-(x4)-s6-(x8)------------------------------------------|
D--------------------------------------------------------------------------------------------------------------|
A------11-------s12-12-s11-11-s9--9---s7-------s4-------------------------------------------------|
E--------------------------------------------------------------------------------------------------------------|

e--------------------------------------------------------------------------------------------------------------|
B--------------------------------------------------------------------------------------------------------------|
G------s14-14-s13-13s11-11-s9-(x4)-s11-(x16)----9--------------------------------------------|
D--------------------------------------------------------------------------------------------------------------|
A------s12-12-s11-11-s9--9---s7-------s9--------------7--------------------------------------------|
E--------------------------------------------------------------------------------------------------------------|

Hope that helps, Good luck.

8 comments:

Chad said...

Could someone put up a video tutorial for awaken me by Jesus Culture?

Rama Pramana said...

nice song

luna said...

Nice song! And also thanks for sharing a video with it.
guitar electronic tuner

msrombat said...

Nice post. I have shared the link on www.rokbeat.com

Pass it on!!

mieledi said...

Oh! I like this published, christian louboutin will pay attention to it.

king abdaoe said...

Thanks very possible, please visit my humble blog




مزيكا4ماتش

cecillia said...

all of which have been presented by this website was perfect, good appearance and artikelnya..penuh color and full of meaning .. specifications and price

cecillia said...

all of which have been presented by this website was perfect, good appearance and artikelnya..penuh color and full of meaning .. honda cbr | saloon car