Always Yours

Here's a song called ‘Always Yours’ - it's from the new Soul Survivor album ‘We Are The Free’, and sung by Jamie Rodwell.



Intro:
Light .8th delay

e|------------------------------------------------------|
B|-----------------------------------7------10----------|
G|----7-(x8)--/14-(x8)--\7-(x7)--/9--9b11---12b14-------|
D|------------------------------------------------------|
A|----5—(x8)--/12-(x8)--\5—(x7)-------------------------|
E|------------------------------------------------------|


Verse:
Heavy .8th delay

e|-------------------------|---(Second Time)---|
B|------7------7-------8---|-----3------2------|
G|------7------6-------7---|----2-2----2-------|
D|------------------5------|---4------2--------|
A|---5-------4-------------|--2------0---------|
E|-------------------------|-------------------|

Chorus:
D, A, G  
Bm, A, G   
  
  
Bridge:
Heavy .8th delay
e|----------------------------------------------------|
B|--8---8-8-8-----------8-----7---7-7-7-----------7---|
G|------------7---7-7-7--7--------------7---7-7-7--7--|
D|----------------------------------------------------|
A|----------------------------------------------------|
E|----------------------------------------------------|
|
|
e|------------------------------------7-(x8)----------|
B|----10---10-10-10-----------10-------------10-(x8)--|
G|------------------7---7-7-7---7---------------------|
D|----------------------------------------------------|
A|----------------------------------------------------|
E|----------------------------------------------------|

3 comments:

Greg Bernard said...

What kind of distortion/OD are you using on this song?

Jake said...

Hey there, I'm using my amps drive channel, it's a Hughes and Kettner Tubemeister 18

cecillia said...

Nice info given, may be a blessing yamaha yzf r and benefit us all specifications and price | kawasaki ninja