Light Will Shine

Here's another one from United's Aftermath.

By Luan




Verse
A D
A D

Pre-Chorus

F#m E D

F#m E D

B|--------------------------
G|--4--6--4--6--6-----------
D|--7--7--7--7--7--Repeat---
A|--------------------------


Chorus

A E F#m D

A E F#m D


Bridge

E F#m D

E F#m D

11 comments:

Luan said...

Hey an error in the description of verse, he is so
.
A F#m D
A F#m D

Timothy said...

Hey i had a quick listen and i think these are some of the riffs:


Intro / verse riff

E|----------------------------------------------------------
B|--------------------------------------------9-------------
G|--9--------------------9----------------------------------
D|-----11--9--11--9--11-----11--9--11--9--11-----11--9--11--
A|----------------------------------------------------------
E|----------------------------------------------------------

Chorus - underneath riff (really quick finger tapping)

E|---------12----------12----------12----------12--
B|--10--12------10--12------10--12------10--12-------
G|---------------------------------------------------
D|---------------------------------------------------
A|---------------------------------------------------
E|---------------------------------------------------

Timothy said...

the spacing on the above tabs went a bit awkward but by listening to it you will get the jist :)

Luan said...

but hey these are riffs on the keyboard?

Mattio said...

yeah 50% of this CD is made from a workstation

Ben said...

what effects are you using?

Luan said...

I used only the distortion, not to mess up the whole beat.

samuel said...

hey anybody has a boss gt-10???? any patch to share??? please help me guys i dont know exactly how this thing works and im getting frustated please God help me

blues said...

Hi,
so nice. it is very helpful to all.
thanks
See More

iser said...

hello sir,, can i have a request... can you give me a tab of in the gap by hillsong london... pls..

cecillia said...
This comment has been removed by a blog administrator.