You Are My Creator

For the first time, a song by Unhindered! I played the first half of the chorus wrongly though.



Intro
Play each note several times
-------------------------

-14--7--9-9s12---8-------
-------------------------
-11--4--6-6s9----5-------
-------------------------
-------------------------

Verse
Turn the volume knob down to lower the distortion
----------------------------------------------------
----------------------------------------------------
--------------------------------------7--7--9--9-10-
-11--11--6-6-4--(x2)--12--12--6-6-4---0--0--0--0-0--
-0---0---0-0-0--------0---0---0-0-0-----------------
----------------------------------------------------

Followed by Bm D

Chorus
A F#m Bm D

At Bm and D, play (each note several times)
---------------------------------
-12---14-------------------------
-----------11----7--9--11--14----
-9----11-------------------------
-----------9-----5--7--9---12----
---------------------------------

3 comments:

Carlos said...

I think te tab in the intro should be this way:

-------------------------
-14--7--10-10s12---9-----
-------------------------
-11--4--7--7s9-----6-----
-------------------------
-------------------------

This is what you play .
pardon if I'm wrong.

Alfred said...

can you please tab "supernatural rain". thanks & God bless.

JoanManuel said...

love this thanks so much.....would it be possible to get a few other songs tabbed from this CD, like Desperate, or Farewell Lullaby, or something along those lines?