Glorious

Here's the title track from Paul Baloche's Glorious album.



Verse
------0----0---------0----0--------0---
-------------8--------------8----------
----7----7---------7---7---------7---7-
-10-------------10------------10-------
---------------------------------------
---------------------------------------

Chorus
F C F C
G Am F C

Instrumental
Play each note several times, dotted 8th note delay.
----12---------15-12-----13-12-----10-12--
-13----13---12----------------------------
----------------------14--------10--------
------------------------------------------
------------------------------------------
------------------------------------------

4 comments:

Donald said...

Thank You Kenny. You inspire me.

brady9 said...

Hey man. Great job. Exactly how his lead player plays it. I was wondering if you could possibly check out the song How Great Is The Love on his new album and post it. Thanks

ucbearcatfan said...

Thank you for posting this and all of the other songs.

I consider this site to be my # 1 resource for learning new worship songs.

We will be singing Glorious this upcoming Sunday.

Thanks for all you do!

Chad said...

http://www.leadworship.com/resources/ListenAndPlay.php?location=v/HQPmK4N02yk&name=Glorious