The Victory

By Jerome
Here's another song from Planetshakers' Deeper. It's been 3 months since I recorded anything... but I'm ready to tab songs for Christ again. I used my Heavy tone patch in my Pod, feel free to ask if you want the patches. God Bless!



Intro: with palm mutes
----------------------
----------------------
----------------------
----------------------
------------4---------
--4--6-7-2----6-7-2---

----------------------
----------------------
----------------------
----------------------
----------------------
-0--6-7-0--2--6h7-6-2-

Verse: with palm mutes

----------------------
----------------------
----------------------
--------6-------------
---6----4----2-----2--
---4---------0-----4--
G#m C# Em F#

Pre-chorus: Strum

G#m F# C#
G#m F# Em
G#m F# C#
Em F# D#m

Chorus: Strum

G#m B Em F#m Em G
G#m B Em F#m Em G

Bridge: same as Intro

----------------------
----------------------
----------------------
----------------------
------------4---------
--4--6-7-2----6-7-2---

------------------------
------------------------
------------------------
------------------------
------------------------
-0--6-7-0--2--6h7-6-2-3-

Followed by

G#m C# Em F# G

to Chorus....

7 comments:

Zach Lentz said...

I would love the patches...thanks.
zach@washingtonavenue.org

Kai said...

Good stuff on the tabs. Simple song. I've played this song live with Joth before there are some minor errors with regards to the chords.

Prechorus:

G#m F# C#m
G#m F# E
G#m F# C#m
E F# D#/G

Chorus:

G#m B E F# E D#/G
G#m B E F# E D#/G

To play the D#/G:
----------------------
----------------------
----------------------
----------------------
--6-------------------
--3-------------------

Guitar_man32@yahoo.it said...

Yeah thanks kai. Looking forward to check it!

_Jerome

creditcards-top said...
This comment has been removed by the author.
kca199514 said...

hey great job. would you mind sending me the chords but in tab formation? thanks

Kevin

ricardo said...

i have ZOOM G1X what is the settings? please,,,
jime_bren@yahoo.com

george said...

jerome what set up you recommend for HEAVY TONE? iam using POD XT LIVE.

thanks

George