Deeper

Here's a really short vid on the instrumental portion of Deeper, by Planetshakers. A bit of improvisation at the end too.



-------9--------------9---------
-10-12----------10-12---10-9----
---------11--9------------------
--------------------------------
--------------------------------
--------------------------------

---------------------------------
-10-s12-s14--10---10---10--------
-------------9h11-9h11-9h11-9----
---------------------------------
---------------------------------
---------------------------------

-------9----12----12--------------
-10-12---10----10----10-9b10r9----
-------------------------------9--
----------------------------------
----------------------------------
----------------------------------

1 comment:

Krishin said...

Hi

I was wondering if anyone knows the intro riff , the kind of synth part that plays through most of the song.

Thanks