This Is Our God

By Jerome

Here are the tabs to This is Our God, based off Nigel's online tutorial. I used a Stereo Delay but nigel used a Analog delay for this...



Intro & Verse:
I used the neck pickup to have a warmer sound
--------------------------
--------------------------
---9----8----9----9------
---6----9----9----7------
---7----11--------7------
--------------9-----------

Pre-Chorus: Just play around these chords
---0-----0-----0----0--------
---0-----0-----0----0--------
---0-----4-----2----2--------
---9-----2-----2----2--------
---9-----2--------------------
---7-----------------2--------
B E A2 F#m

Instrumental: add some overdrive and switch your guitar to the bridge pickup
-12--11--12---9---11--12--12----
-12--12--12--10--12--10--12----
-9---11--11---9---11--9---9-----
------------------------------ 2x
------------------------------
------------------------------

Chorus: Strum the chords

E B F#m C#m A2

then i used an octave line to fill up the gap
---------------
---------------
--13----14-----
---------------
--11----12-----
---------------

back to Pre-chorus

followed by (Neck Pickup)
-----------------------------
-----------------------------
--11-----------9---9----------
--9---9---7---7---9-----------
--9---9---9---7---7-----------
--0---7-----------------------

I kinda missed this picking part:
--------------------------12---------
--5-5-5-5----followed by---12--12----
---4-4-2-2---------------9---11------
------------------------------9------
-------------------------------------
-------------------------------------

------------------9-------
----10--9---------9-------
------------11--9--9------
--11---11--11--11---11----
--------------------------
--------------------------

3 comments:

Moses said...

stop trying to be like kenny

brendan said...

wow thanks! this really helped

nhgh said...

memang website minimalist house design yang keren memang harus minimalist living room design begini,selalu mengedepankan kepuasan dan banyak memberi spec honda cbr 250 manfaat bagi pengunjungnya. tecnologi engine honda