Holding Nothing Back (Jesus Culture)

Here's a very refreshing version of Holding Nothing Back, by Jesus Culture.



Intro & Ending
-------------------------------------------
-9-9-7-9-9---------------------------------
-----------6-6-6-(x3)-8-8-8-8-(x3)-8-9-9-9-
-------------------------------------------
-------------------------------------------
-------------------------------------------

For the ending, play one octave up (not in video):
-16-16-14-16-16-------------------------------------------
---------------14-14-14-(x3)-16-16-16-16-(x3)-16-17-17-17-
----------------------------------------------------------
----------------------------------------------------------
----------------------------------------------------------
----------------------------------------------------------

Verse
Play like a bass, with slight palm mutes.
---------------------

---------------------
---------------------
---------------------
-7...--4...-0...-----
---------------------

Pre-Chorus
Strum once
-0---0---0----
-2---0---4----
-2---6---4---- (x2)
-2---6---4----
-0---4---2----
--------------
A C#m7 Badd4

Chorus
Power chords: E B/D# C#m B (x2)

For B/D#, play
-----
-----
-7---
-9---
-6---
-----

Instrumental
Some notes aren't right, as there were just too many things to memorise.. but there general idea is there.

--------------------------------------
----
------------------------------------------
-1-1-1-s9-9-9-9--9...-8-8-8-8-9-9-8-9-8-9-
------------------------------------------
------------------------------------------
------------------------------------------

--------------------------------------
----12--------------------------------
-13----(x4)-13-11-11---8-8-8-8-8-9-9--
--------------------------------------
--------------------------------------
--------------------------------------

----11-----11-----12----11--------11--
--------12-----12----12----12---9-----
-13-----------------------------------
--------------------------------------
--------------------------------------
--------------------------------------

-------------------12-12-12-14-14-16-16--------------
-9-10-10-9-10-9-10----------------------14-14-14-14-
-9-9--9--9-9--9-9------------------------------------
-----------------------------------------------------
-----------------------------------------------------
-----------------------------------------------------

----------------------
-9-10-10-9-10-9-9-12--
-9-9--9--9-9--9-9-9---
----------------------
----------------------
----------------------

Download the video

9 comments:

Sam said...

YESS!!!! thank you so much for posting this!! ive been waiting awhile for someone to do something by them. if u could do some other songs, not only from their new album, that'd be great!

Marcus said...

Thanks a ton for posting Jesus Culture! I have been hoping you would start using their stuff. God bless!

sean said...

Hi Kenny,

All your videos, can you record with higher sampling rate? The videos seem lagging, and causes problems if the viewers can't see clearly which note you're pressing. Audio is ok. Thanks

Mitch said...

B/D# is

-------
-------
---8---
---9---
---6---
-------
not what you have. bringing it down to the 7th fret makes a chord consisting of D# B and D instead of D# B and D#. but everything else sounds great!

Sam said...

----------------11----
-9-10-10-9-10-9-9-12--
-9-9--9--9-9--9-9-9---
----------------------
----------------------
----------------------

for the end of the solo.

Sam said...

play that 11 the one before the last =P

Regan said...

Would some mind telling me the chords for the verse, intro, ending, and instrumental? I play piano, and I all this stuff looks like gibberish to me...

gino97 said...

what patch did you use for the pod xtl and can you tab dance with me by jesus ulture

xien shen said...

Yes!! thanks for this