You Hold Me Now

By Jonathan



Verse 1:
-----------------------------------------------
-----------------------------------------7b8r7-
--7------7------7------7-----7-------7---------
-------------4h5---4h5----4h5-----4h5----------
-----------------------------------------------
-----------------------------------------------

Instrumental 1:
----------------------------------------------
----------------------------------------------
----------------------------------------------

---------7---7------------------7---7------7--
-5--4--5---5---(x3)-7---5--4--5---5---(x4)-5--
----------------------------------------------

Pre-Chorus:
Em - D/F# - G


Chorus:
D - G - Bm - G


Instrumental 2:

-------------------------------------------
-15-17-19-14-15-22-20-19-17-19-20-19-17-15-
-------------------------------------------
-12-14-16-11-12-19-17-16-14-16-17-16-14-12-
-------------------------------------------
-------------------------------------------

----------------------------------
--12--14---15---14---15---17---15-
----------------------------------
--9---11---12---11---12---14---12-
----------------------------------
----------------------------------


Bridge:
D - A - Em - G

Instrumental 3:
The same as the first one but played twice.

6 comments:

melven62 said...

Thanks and Good Job. I like your PRS.

Romka said...

i got exactly the same shirt .. and .. you got a hole in your wall

Ashleigh said...

You look just like the lead guitar player on American Idol

sebastianl37 said...

yo, do you kno the song oh you bring

Renato said...

Hey Guys! I'm from Brazil! I made workshop of You hold me now and Solution too. You are welcome there: http://letraemusicadgp.blogspot.com/2011/03/solution-hillsong-united.html or http://letraemusicadgp.blogspot.com/2011/02/you-hold-me-now-video-aula.html . God bless us!

self-operation said...

thank you for your tutorials.. :)