The Time has Come

Here's the Time Has Come, again one of Nigel's very challenging instrumental variations. This version is played in Em, instead of F#m in the United CD. Play two frets up to go along with the United version.



Tabs
---------------------------------------
-------12---12--------12---12----------
s9-9-9----9-----9-9-9----9-------------

---------------------------------------
---------------------------------------
---------------------------------------

---------------------------------------------
----------12----12--12-----------------------
-----------------------12-12-12-12h14-14-14--
-12-12-12----12------------------------------
---------------------------------------------
---------------------------------------------

-----------------------12--14-15--------
--------12---12------12----------15b17--
-s9-9-9----9-------12-------------------
------------------rake------------------
----------------------------------------
----------------------------------------

This line is a little similar to the instrumental from I'm Not Ashamed, as well as the Hillsong version of What the World Will Never Take. Use lots of hammer-ons and pull-offs to gain speed.

-12---------------12--------------------

----15p12------------15p12--------------
----------14b16------------15p14p12-----
------------------------------------14--
----------------------------------------
----------------------------------------

---------------------------
---------------------------
-14p12--------11h12h14-11--
-------14p12---------------
---------------------------
---------------------------

-------------------------------0--
-------------------------------0--
-------------------------------0--
-9h10h12p9h10p9----------------2--
----------------12p10p9--------2--
------------------------12-10--0--

Play the A power chord, followed by these harmonics (play the first one a few times):

--------------12--------
-7------7--------12-----
-7--------7-------------
-7----------------------
------------------------
------------------------
Push down on your
tremolo bar at the last note.

5 comments:

Greg-or-Rick! said...

Haha, nice work man, i like the tone you've got goin on, is it new? Nice post, gonna have to give this a shot!

kenny said...

I switched to a new guitar last month, and got a pod x3l last Dec.. so I suppose that counts as new?

Greg-or-Rick! said...

haha well maybe its just me, but I def like the tone better than when you had the blue ibanez. actually i like your tone better than nigel's in that youtube video.

Jam said...

yeahnice tone. . .

kyle.booth said...

What album is this guitar solo from