Hosanna (Nigel's instrumental variation)

Here's yet another one, do check out the others under the 'Hillsong' section, or just scroll down/look at the older posts. This is much easier to play than the others, but compared to the previous version of Hillsong (where I lazily used an octaver) I played the octaves here. Use lots of slides to make the notes transit smoothly.



Tabs
-------------------------------------
-------------------------------------
-13s16-16-16-16-16-11s13s11s13-------
-------------------------------------
-11s14-14-14-14-14--9s11-s9s11-------
-------------------------------------

-------------------------------------
-------------------------------------
---s16-16-16-16-16-11s13s11s13-------
-------------------------------------
---s14-14-14-14-14--9s11-s9s11-------
-------------------------------------

-------------------------------------
-------------------------------------
-14-14-14-14-14-11s13s11s9-----------
-------------------------------------
-12-12-12-12-12--9s11-s9s7-----------
-------------------------------------

-------------------------------------
-------------------------------------
-8-8-8-8-9-9-9s11-11-----------------
-------------------------------------
-6-6-6-6-7-7-7s9--9------------------
-------------------------------------

-------------------------------------
-------------------------------------
-13s16-16-16s18s16-16--11s13s11s13---
-------------------------------------
-11s14-14-14s16s14-14---9s11-s9s11---
-------------------------------------

-------------------------------------
-------------------------------------
-13s16-16-16s18s16-16--11s13s11s13---
-------------------------------------
-11s14-14-14s16s14-14---9s11-s9s11---
-------------------------------------

-------------------------------------------
-------16----16----16----17----19----19----
-14-14----14----14----14----14----14----14-
-------------------------------------------
-------------------------------------------
-------------------------------------------

---------
-17b19---
---------
---------
---------
---------

9 comments:

Guitar_man32@yahoo.it said...

Gosh K your so amazing, you get all the solos! go for the SAvior King! XD

I really like the WTWWNT solo!

^^ said...

hey K where did you get those videos of nigel's solos? i want to watch it.. please

Ryan said...
This comment has been removed by the author.
Ryan said...

just did a quick google search for "nigel hendroff videos"

and found this on Youtube..
not sure if it's the same source
but it looks like it's from
a Hillsong Tour or something..Darlene is in the videos as well.

(sorry kenny about the deleted post, i forgot to put the URL of the youtube video here so i'm reposting)

http://www.youtube.com/watch?v=lIBrraNSL8Q

enjoy! :)

^^ said...

thanks bro ^^

crapsh1tt3r said...

nice post
hei dude.. juz checking whether i am wrong or not...
]-12-14----------------[
]-------13-14-16-17b19-[

is it right?

ejay said...
This comment has been removed by the author.
ejay said...

awesome! so i want to know whats the patch for that? im using zoom g1x. pls i need it :) thx in advance :))

Praise the Lord said...

you know, after you finish, nigel keeps playing something else, and the original video is incomplete...so if you could get it....