Happy Day (Fee)

By Garrett



Intro
------------------------------------------------
--6------4------3------4------------------------
--3-(x8)-3-(x8)-3-(x8)-3-(x8)-------------------(x2)
------------------------------------------------
------------------------------------------------
------------------------------------------------

2nd part of Verse
---------------------------------------
---------------------------------------
-8---7---3...----8---7---7s8---8...----
---------------------------------------
-6---5---1...----6---5---5s6---6...----
---------------------------------------

----------------------------------------
----------------------------------------
-12--8-8s7...--5--7---7--7s8...---------
----------------------------------------
-10--6-6s5...--3--5---5--5s6...---------
----------------------------------------

----------------
----------------
-8-7-3-10-10-10-
----------------
-6-5-1--8--8--8-
----------------

Chorus
------------------
------------------
-3----------------
-3---1---5---3----
-1---1---5---3----
-----1---5---3----


Post-Chorus
With dotted 8th note delay, play each note a few times
-----------8----8--10-----11-10-8------
-11----11--------------11---------11---
----10-------10------------------------
---------------------------------------
---------------------------------------


Bridge
1st part of bridge
---------------------
-8-------10----------
-7(hold)--7-(hold)---
---------------------
---------------------
---------------------

11------13-------13-------13-------13-------13----13-
11(hold)---11-11----11-11----11-11----11-11----11----
-----------------------------------------------------
-----------------------------------------------------
-----------------------------------------------------
-----------------------------------------------------

2nd Part of bridge (not on the recording though)
--------------------
-8------10----------
-7(x16)-7-(x16)-----
--------------------
--------------------
--------------------

-11------13-------13-------13-------13-------13----13-
-11(x16)----11-11----11-11----11-11----11-11----11----
------------------------------------------------------
------------------------------------------------------
------------------------------------------------------
------------------------------------------------------
At the end, slide down to create some sound - hard to put it in words but its in the video.

6 comments:

AznKenshin said...

You lowered the key, right? I can tell. You should have it noted.

Life Logic said...

Haha sounds good man. keep it up.

Christopher LaPierre said...

what key is that in?

garrett said...

yeah i lowered it. i put it in the key we play it in at my church, B flat. sorry for not saying anything.

meteM said...

As a heads up for ppl, I believe he is using a Drop-D tuning, meaning the lowest E string it tuned to the D.

Changes the chorus power chords he uses:

In standard tuning would be:
Chorus
------------------
------------------
-3----------------
-3---1---5---3----
-1---1---5---3----
-----X---3---1----
Bb D G F

Either way, to get to the D chord, u can do the drop-D tuning. Hope this helps!

Rick said...

Hi there! How do you get that ringing effect that you have in the "post chorus" part? Sounds tasty!